  0
SECTION
  2
HEADER
  9
$ACADVER
  1
AC1009
  9
$INSBASE
 10
0.0
 20
0.0
 30
0.0
  9
$EXTMIN
 10
4.954913210896847
 20
4.995470529227986
 30
-0.0015258207003583
  9
$EXTMAX
 10
755.044182159299
 20
505.02992006331209
 30
0.0000000349246037
  9
$LIMMIN
 10
-210.0
 20
-148.5
  9
$LIMMAX
 10
210.0
 20
148.5
  9
$ORTHOMODE
 70
     0
  9
$REGENMODE
 70
     1
  9
$FILLMODE
 70
     1
  9
$QTEXTMODE
 70
     0
  9
$MIRRTEXT
 70
     1
  9
$DRAGMODE
 70
     2
  9
$LTSCALE
 40
0.5
  9
$OSMODE
 70
  3071
  9
$ATTMODE
 70
     1
  9
$TEXTSIZE
 40
0.2
  9
$TRACEWID
 40
0.05
  9
$TEXTSTYLE
  7
STANDARD
  9
$CLAYER
  8
0
  9
$CELTYPE
  6
CONTINUOUS
  9
$CECOLOR
 62
   256
  9
$DIMSCALE
 40
1.0
  9
$DIMASZ
 40
2.319999999999999
  9
$DIMEXO
 40
1.5
  9
$DIMDLI
 40
3.75
  9
$DIMRND
 40
0.0
  9
$DIMDLE
 40
0.0
  9
$DIMEXE
 40
0.0
  9
$DIMTP
 40
0.0
  9
$DIMTM
 40
0.0
  9
$DIMTXT
 40
2.5
  9
$DIMCEN
 40
2.5
  9
$DIMTSZ
 40
0.0
  9
$DIMTOL
 70
     0
  9
$DIMLIM
 70
     0
  9
$DIMTIH
 70
     0
  9
$DIMTOH
 70
     0
  9
$DIMSE1
 70
     1
  9
$DIMSE2
 70
     1
  9
$DIMTAD
 70
     1
  9
$DIMZIN
 70
     0
  9
$DIMBLK
  1

  9
$DIMASO
 70
     1
  9
$DIMSHO
 70
     1
  9
$DIMPOST
  1

  9
$DIMAPOST
  1

  9
$DIMALT
 70
     0
  9
$DIMALTD
 70
     4
  9
$DIMALTF
 40
0.0394
  9
$DIMLFAC
 40
1.0
  9
$DIMTOFL
 70
     1
  9
$DIMTVP
 40
0.0
  9
$DIMTIX
 70
     0
  9
$DIMSOXD
 70
     0
  9
$DIMSAH
 70
     1
  9
$DIMBLK1
  1

  9
$DIMBLK2
  1

  9
$DIMSTYLE
  2
MXDIMSTYLE
  9
$DIMCLRD
 70
     0
  9
$DIMCLRE
 70
     0
  9
$DIMCLRT
 70
     0
  9
$DIMTFAC
 40
1.0
  9
$DIMGAP
 40
1.0
  9
$LUNITS
 70
     2
  9
$LUPREC
 70
     4
  9
$SKETCHINC
 40
0.1
  9
$FILLETRAD
 40
0.0
  9
$AUNITS
 70
     0
  9
$AUPREC
 70
     0
  9
$MENU
  1
acad
  9
$ELEVATION
 40
0.0
  9
$PELEVATION
 40
0.0
  9
$THICKNESS
 40
0.0
  9
$LIMCHECK
 70
     0
  9
$BLIPMODE
 70
     0
  9
$CHAMFERA
 40
0.0
  9
$CHAMFERB
 40
0.0
  9
$SKPOLY
 70
     0
  9
$TDCREATE
 40
2452200.7321329978
  9
$TDUPDATE
 40
2454004.4957107641
  9
$TDINDWG
 40
0.0167414352
  9
$TDUSRTIMER
 40
0.0167407407
  9
$USRTIMER
 70
     1
  9
$ANGBASE
 50
0.0
  9
$ANGDIR
 70
     0
  9
$PDMODE
 70
     3
  9
$PDSIZE
 40
-100.0
  9
$PLINEWID
 40
0.0
  9
$COORDS
 70
     2
  9
$SPLFRAME
 70
     0
  9
$SPLINETYPE
 70
     6
  9
$SPLINESEGS
 70
     8
  9
$ATTDIA
 70
     0
  9
$ATTREQ
 70
     1
  9
$HANDLING
 70
 22529
  9
$HANDSEED
  5
9C8E
  9
$SURFTAB1
 70
     6
  9
$SURFTAB2
 70
     6
  9
$SURFTYPE
 70
     6
  9
$SURFU
 70
     6
  9
$SURFV
 70
     6
  9
$UCSNAME
  2

  9
$UCSORG
 10
0.0
 20
0.0
 30
0.0
  9
$UCSXDIR
 10
1.0
 20
0.0
 30
0.0
  9
$UCSYDIR
 10
0.0
 20
1.0
 30
0.0
  9
$PUCSNAME
  2

  9
$PUCSORG
 10
0.0
 20
0.0
 30
0.0
  9
$PUCSXDIR
 10
1.0
 20
0.0
 30
0.0
  9
$PUCSYDIR
 10
0.0
 20
1.0
 30
0.0
  9
$USERI1
 70
     0
  9
$USERI2
 70
     0
  9
$USERI3
 70
     0
  9
$USERI4
 70
     0
  9
$USERI5
 70
     0
  9
$USERR1
 40
0.0
  9
$USERR2
 40
0.0
  9
$USERR3
 40
0.0
  9
$USERR4
 40
0.0
  9
$USERR5
 40
0.0
  9
$WORLDVIEW
 70
     1
  9
$SHADEDGE
 70
     3
  9
$SHADEDIF
 70
    70
  9
$TILEMODE
 70
     1
  9
$MAXACTVP
 70
    16
  9
$PLIMCHECK
 70
     0
  9
$PEXTMIN
 10
1.0000000000000000E+020
 20
1.0000000000000000E+020
 30
1.0000000000000000E+020
  9
$PEXTMAX
 10
-1.0000000000000000E+020
 20
-1.0000000000000000E+020
 30
-1.0000000000000000E+020
  9
$PLIMMIN
 10
0.0
 20
0.0
  9
$PLIMMAX
 10
12.0
 20
9.0
  9
$UNITMODE
 70
     0
  9
$VISRETAIN
 70
     0
  9
$PLINEGEN
 70
     1
  9
$PSLTSCALE
 70
     0
  0
ENDSEC
  0
SECTION
  2
TABLES
  0
TABLE
  2
VPORT
 70
     2
  0
VPORT
  2
*ACTIVE
 70
     0
 10
0.0
 20
0.0
 11
1.0
 21
1.0
 12
130.4450114821806
 22
414.08956306068148
 13
0.0
 23
0.0
 14
1.0
 24
1.0
 15
0.0
 25
0.0
 16
0.0
 26
0.0
 36
1.0
 17
0.0
 27
0.0
 37
0.0
 40
209.47603090759509
 41
1.464761904761904
 42
50.0
 43
0.0
 44
0.0
 50
0.0
 51
0.0
 71
     0
 72
   100
 73
     1
 74
     0
 75
     0
 76
     0
 77
     0
 78
     0
  0
ENDTAB
  0
TABLE
  2
LTYPE
 70
     1
  0
LTYPE
  2
CONTINUOUS
 70
     0
  3
Solid line
 72
    65
 73
     0
 40
0.0
  0
ENDTAB
  0
TABLE
  2
LAYER
 70
     4
  0
LAYER
  2
0
 70
     0
 62
     7
  6
CONTINUOUS
  0
LAYER
  2
SUNPO
 70
     0
 62
     1
  6
CONTINUOUS
  0
LAYER
  2
DANMEN
 70
     0
 62
     7
  6
CONTINUOUS
  0
LAYER
  2
WAKU
 70
     0
 62
     3
  6
CONTINUOUS
  0
ENDTAB
  0
TABLE
  2
STYLE
 70
     2
  0
STYLE
  2
STANDARD
 70
     0
 40
0.2
 41
1.0
 50
0.0
 71
     0
 42
0.2
  3
txt.shx
  4
bigfont.shx
  0
STYLE
  2
MX_NOTE_STANDARD
 70
     0
 40
2.5
 41
1.0
 50
0.0
 71
     0
 42
2.5
  3
txt.shx
  4
extfont.shx
  0
ENDTAB
  0
TABLE
  2
VIEW
 70
     0
  0
ENDTAB
  0
TABLE
  2
UCS
 70
     0
  0
ENDTAB
  0
TABLE
  2
APPID
 70
     1
  0
APPID
  2
ACAD
 70
     0
  0
ENDTAB
  0
TABLE
  2
DIMSTYLE
 70
     1
  0
DIMSTYLE
  2
MXDIMSTYLE
 70
     0
  3

  4

  5

  6

  7

 40
1.0
 41
2.5
 42
1.5
 43
3.75
 44
0.0
 45
0.0
 46
0.0
 47
0.0
 48
0.0
140
2.5
141
2.5
142
0.0
143
0.0394
144
1.0
145
0.0
146
1.0
147
1.0
 71
     0
 72
     0
 73
     0
 74
     0
 75
     0
 76
     0
 77
     1
 78
     8
170
     0
171
     4
172
     1
173
     0
174
     0
175
     0
176
     0
177
     0
178
     0
  0
ENDTAB
  0
ENDSEC
  0
SECTION
  2
BLOCKS
  0
BLOCK
  8
0
  2
$MODEL_SPACE
 70
     0
 10
0.0
 20
0.0
 30
0.0
  3
$MODEL_SPACE
  1

  0
ENDBLK
  5
2BBC
  8
0
  0
BLOCK
 67
     1
  8
0
  2
$PAPER_SPACE
 70
     0
 10
0.0
 20
0.0
 30
0.0
  3
$PAPER_SPACE
  1

  0
ENDBLK
  5
2BB9
 67
     1
  8
0
  0
BLOCK
  8
0
  2
*U0
 70
     1
 10
0.0
 20
0.0
 30
0.0
  3
*U0
  1

  0
SOLID
  5
2AFF
  8
WAKU
  6
CONTINUOUS
 10
371.30514199999988
 20
283.60529100000002
 30
0.0
 11
370.49978199999993
 21
283.53036100000003
 31
0.0
 12
370.87498699999998
 22
283.52044899999999
 32
0.0
 13
370.87498699999998
 23
283.52044899999999
 33
0.0
  0
SOLID
  5
2B00
  8
WAKU
  6
CONTINUOUS
 10
370.193309
 20
283.63466399999999
 30
0.0
 11
370.49978199999993
 21
283.53036100000003
 31
0.0
 12
371.30514199999988
 22
283.60529100000002
 32
0.0
 13
371.30514199999988
 23
283.60529100000002
 33
0.0
  0
SOLID
  5
2B01
  8
WAKU
  6
CONTINUOUS
 10
371.77444800000001
 20
283.78177299999987
 30
0.0
 11
370.193309
 21
283.63466399999999
 31
0.0
 12
371.30514199999988
 22
283.60529100000002
 32
0.0
 13
371.30514199999988
 23
283.60529100000002
 33
0.0
  0
SOLID
  5
2B02
  8
WAKU
  6
CONTINUOUS
 10
369.96682399999997
 20
283.82952599999987
 30
0.0
 11
370.193309
 21
283.63466399999999
 31
0.0
 12
371.77444800000001
 22
283.78177299999987
 32
0.0
 13
371.77444800000001
 23
283.78177299999987
 33
0.0
  0
SOLID
  5
2B03
  8
WAKU
  6
CONTINUOUS
 10
370.59417699999989
 20
283.90949799999999
 30
0.0
 11
369.96682399999997
 21
283.82952599999987
 31
0.0
 12
371.77444800000001
 22
283.78177299999987
 32
0.0
 13
371.77444800000001
 23
283.78177299999987
 33
0.0
  0
SOLID
  5
2B04
  8
WAKU
  6
CONTINUOUS
 10
370.90129400000001
 20
283.91486300000003
 30
0.0
 11
370.59417699999989
 21
283.90949799999999
 31
0.0
 12
371.77444800000001
 22
283.78177299999987
 32
0.0
 13
371.77444800000001
 23
283.78177299999987
 33
0.0
  0
SOLID
  5
2B05
  8
WAKU
  6
CONTINUOUS
 10
370.39292699999987
 20
283.968568
 30
0.0
 11
369.96682399999997
 21
283.82952599999987
 31
0.0
 12
370.59417699999989
 22
283.90949799999999
 32
0.0
 13
370.59417699999989
 23
283.90949799999999
 33
0.0
  0
SOLID
  5
2B06
  8
WAKU
  6
CONTINUOUS
 10
371.2969839999999
 20
284.01036800000003
 30
0.0
 11
370.90129400000001
 21
283.91486300000003
 31
0.0
 12
371.77444800000001
 22
283.78177299999987
 32
0.0
 13
371.77444800000001
 23
283.78177299999987
 33
0.0
  0
SOLID
  5
2B07
  8
WAKU
  6
CONTINUOUS
 10
372.26566600000001
 20
284.04341099999988
 30
0.0
 11
371.2969839999999
 21
284.01036800000003
 31
0.0
 12
371.77444800000001
 22
283.78177299999987
 32
0.0
 13
371.77444800000001
 23
283.78177299999987
 33
0.0
  0
SOLID
  5
2B08
  8
WAKU
  6
CONTINUOUS
 10
370.27517699999993
 20
284.06647599999991
 30
0.0
 11
369.96682399999997
 21
283.82952599999987
 31
0.0
 12
370.39292699999987
 22
283.968568
 32
0.0
 13
370.39292699999987
 23
283.968568
 33
0.0
  0
SOLID
  5
2B09
  8
WAKU
  6
CONTINUOUS
 10
369.82864599999988
 20
284.10779100000002
 30
0.0
 11
369.96682399999997
 21
283.82952599999987
 31
0.0
 12
370.27517699999993
 22
284.06647599999991
 32
0.0
 13
370.27517699999993
 23
284.06647599999991
 33
0.0
  0
SOLID
  5
2B0A
  8
WAKU
  6
CONTINUOUS
 10
370.70945799999993
 20
284.14239700000002
 30
0.0
 11
369.82864599999988
 21
284.10779100000002
 31
0.0
 12
370.27517699999993
 22
284.06647599999991
 32
0.0
 13
370.27517699999993
 23
284.06647599999991
 33
0.0
  0
SOLID
  5
2B0B
  8
WAKU
  6
CONTINUOUS
 10
371.75188199999991
 20
284.20279799999992
 30
0.0
 11
371.2969839999999
 21
284.01036800000003
 31
0.0
 12
372.26566600000001
 22
284.04341099999988
 32
0.0
 13
372.26566600000001
 23
284.04341099999988
 33
0.0
  0
SOLID
  5
2B0C
  8
WAKU
  6
CONTINUOUS
 10
369.55038100000002
 20
284.245969
 30
0.0
 11
369.82864599999988
 21
284.10779100000002
 31
0.0
 12
370.70945799999993
 22
284.14239700000002
 32
0.0
 13
370.70945799999993
 23
284.14239700000002
 33
0.0
  0
SOLID
  5
2B0D
  8
WAKU
  6
CONTINUOUS
 10
371.18642799999992
 20
284.31462499999992
 30
0.0
 11
369.55038100000002
 21
284.245969
 31
0.0
 12
370.70945799999993
 22
284.14239700000002
 32
0.0
 13
370.70945799999993
 23
284.14239700000002
 33
0.0
  0
SOLID
  5
2B0E
  8
WAKU
  6
CONTINUOUS
 10
372.76075600000001
 20
284.38059500000003
 30
0.0
 11
371.75188199999991
 21
284.20279799999992
 31
0.0
 12
372.26566600000001
 22
284.04341099999988
 32
0.0
 13
372.26566600000001
 23
284.04341099999988
 33
0.0
  0
SOLID
  5
2B0F
  8
WAKU
  6
CONTINUOUS
 10
370.172911
 20
284.45185600000002
 30
0.0
 11
369.55038100000002
 21
284.245969
 31
0.0
 12
371.18642799999992
 22
284.31462499999992
 32
0.0
 13
371.18642799999992
 23
284.31462499999992
 33
0.0
  0
SOLID
  5
2B10
  8
WAKU
  6
CONTINUOUS
 10
369.35551800000002
 20
284.47245400000003
 30
0.0
 11
369.55038100000002
 21
284.245969
 31
0.0
 12
370.172911
 22
284.45185600000002
 32
0.0
 13
370.172911
 23
284.45185600000002
 33
0.0
  0
SOLID
  5
2B11
  8
WAKU
  6
CONTINUOUS
 10
372.23749700000002
 20
284.48611699999992
 30
0.0
 11
371.75188199999991
 21
284.20279799999992
 31
0.0
 12
372.76075600000001
 22
284.38059500000003
 32
0.0
 13
372.76075600000001
 23
284.38059500000003
 33
0.0
  0
SOLID
  5
2B12
  8
WAKU
  6
CONTINUOUS
 10
370.68139500000001
 20
284.53919500000001
 30
0.0
 11
370.172911
 21
284.45185600000002
 31
0.0
 12
371.18642799999992
 22
284.31462499999992
 32
0.0
 13
371.18642799999992
 23
284.31462499999992
 33
0.0
  0
SOLID
  5
2B13
  8
WAKU
  6
CONTINUOUS
 10
369.787305
 20
284.55393500000002
 30
0.0
 11
369.35551800000002
 21
284.47245400000003
 31
0.0
 12
370.172911
 22
284.45185600000002
 32
0.0
 13
370.172911
 23
284.45185600000002
 33
0.0
  0
SOLID
  5
2B14
  8
WAKU
  6
CONTINUOUS
 10
371.68776999999989
 20
284.57654500000001
 30
0.0
 11
370.68139500000001
 21
284.53919500000001
 31
0.0
 12
371.18642799999992
 22
284.31462499999992
 32
0.0
 13
371.18642799999992
 23
284.31462499999992
 33
0.0
  0
SOLID
  5
2B15
  8
WAKU
  6
CONTINUOUS
 10
369.68915499999991
 20
284.67243500000001
 30
0.0
 11
369.35551800000002
 21
284.47245400000003
 31
0.0
 12
369.787305
 22
284.55393500000002
 32
0.0
 13
369.787305
 23
284.55393500000002
 33
0.0
  0
SOLID
  5
2B16
  8
WAKU
  6
CONTINUOUS
 10
369.251215
 20
284.77892800000001
 30
0.0
 11
369.35551800000002
 21
284.47245400000003
 31
0.0
 12
369.68915499999991
 22
284.67243500000001
 32
0.0
 13
369.68915499999991
 23
284.67243500000001
 33
0.0
  0
SOLID
  5
2B17
  8
WAKU
  6
CONTINUOUS
 10
373.24153200000001
 20
284.78094099999998
 30
0.0
 11
372.23749700000002
 21
284.48611699999992
 31
0.0
 12
372.76075600000001
 22
284.38059500000003
 32
0.0
 13
372.76075600000001
 23
284.38059500000003
 33
0.0
  0
SOLID
  5
2B18
  8
WAKU
  6
CONTINUOUS
 10
371.31226299999992
 20
284.8103319999999
 30
0.0
 11
370.68139500000001
 21
284.53919500000001
 31
0.0
 12
371.68776999999989
 22
284.57654500000001
 32
0.0
 13
371.68776999999989
 23
284.57654500000001
 33
0.0
  0
SOLID
  5
2B19
  8
WAKU
  6
CONTINUOUS
 10
369.63035799999989
 20
284.873087
 30
0.0
 11
369.251215
 21
284.77892800000001
 31
0.0
 12
369.68915499999991
 22
284.67243500000001
 32
0.0
 13
369.68915499999991
 23
284.67243500000001
 33
0.0
  0
SOLID
  5
2B1A
  8
WAKU
  6
CONTINUOUS
 10
372.194232
 20
284.91809899999998
 30
0.0
 11
371.31226299999992
 21
284.8103319999999
 31
0.0
 12
371.68776999999989
 22
284.57654500000001
 32
0.0
 13
371.68776999999989
 23
284.57654500000001
 33
0.0
  0
SOLID
  5
2B1B
  8
WAKU
  6
CONTINUOUS
 10
370.26016800000002
 20
284.959969
 30
0.0
 11
369.787305
 21
284.55393500000002
 31
0.0
 12
370.172911
 22
284.45185600000002
 32
0.0
 13
370.172911
 23
284.45185600000002
 33
0.0
  0
SOLID
  5
2B1C
  8
WAKU
  6
CONTINUOUS
 10
369.86313899999999
 20
284.98818899999998
 30
0.0
 11
369.787305
 21
284.55393500000002
 31
0.0
 12
370.26016800000002
 22
284.959969
 32
0.0
 13
370.26016800000002
 23
284.959969
 33
0.0
  0
SOLID
  5
2B1D
  8
WAKU
  6
CONTINUOUS
 10
398.19400599999989
 20
285.115385
 30
0.0
 11
397.60605499999991
 21
283.49999999999989
 31
0.0
 12
401.913747
 22
283.49999999999989
 32
0.0
 13
401.913747
 23
283.49999999999989
 33
0.0
  0
SOLID
  5
2B1E
  8
WAKU
  6
CONTINUOUS
 10
401.913747
 20
283.49999999999989
 30
0.0
 11
401.42477599999989
 21
285.115385
 31
0.0
 12
398.19400599999989
 22
285.115385
 32
0.0
 13
398.19400599999989
 23
285.115385
 33
0.0
  0
SOLID
  5
2B1F
  8
WAKU
  6
CONTINUOUS
 10
369.2413029999999
 20
285.15413199999989
 30
0.0
 11
369.251215
 21
284.77892800000001
 31
0.0
 12
369.63035799999989
 22
284.873087
 32
0.0
 13
369.63035799999989
 23
284.873087
 33
0.0
  0
SOLID
  5
2B20
  8
WAKU
  6
CONTINUOUS
 10
369.635696
 20
285.18040400000001
 30
0.0
 11
369.2413029999999
 21
285.15413199999989
 31
0.0
 12
369.63035799999989
 22
284.873087
 32
0.0
 13
369.63035799999989
 23
284.873087
 33
0.0
  0
SOLID
  5
2B21
  8
WAKU
  6
CONTINUOUS
 10
373.69033499999989
 20
285.22974399999998
 30
0.0
 11
372.23749700000002
 21
284.48611699999992
 31
0.0
 12
373.24153200000001
 22
284.78094099999998
 32
0.0
 13
373.24153200000001
 23
284.78094099999998
 33
0.0
  0
SOLID
  5
2B22
  8
WAKU
  6
CONTINUOUS
 10
371.98993999999999
 20
285.25143100000003
 30
0.0
 11
371.31226299999992
 21
284.8103319999999
 31
0.0
 12
372.194232
 22
284.91809899999998
 32
0.0
 13
372.194232
 23
284.91809899999998
 33
0.0
  0
SOLID
  5
2B23
  8
WAKU
  6
CONTINUOUS
 10
373.195965
 20
285.2752319999999
 30
0.0
 11
372.23749700000002
 21
284.48611699999992
 31
0.0
 12
373.69033499999989
 22
285.22974399999998
 32
0.0
 13
373.69033499999989
 23
285.22974399999998
 33
0.0
  0
SOLID
  5
2B24
  8
WAKU
  6
CONTINUOUS
 10
372.68636299999991
 20
285.32617099999987
 30
0.0
 11
371.98993999999999
 21
285.25143100000003
 31
0.0
 12
372.194232
 22
284.91809899999998
 32
0.0
 13
372.194232
 23
284.91809899999998
 33
0.0
  0
SOLID
  5
2B25
  8
WAKU
  6
CONTINUOUS
 10
370.03529300000002
 20
285.46515399999993
 30
0.0
 11
369.86313899999999
 21
284.98818899999998
 31
0.0
 12
370.26016800000002
 22
284.959969
 32
0.0
 13
370.26016800000002
 23
284.959969
 33
0.0
  0
SOLID
  5
2B26
  8
WAKU
  6
CONTINUOUS
 10
369.73149000000001
 20
285.57602099999991
 30
0.0
 11
369.2413029999999
 21
285.15413199999989
 31
0.0
 12
369.635696
 22
285.18040400000001
 32
0.0
 13
369.635696
 23
285.18040400000001
 33
0.0
  0
SOLID
  5
2B27
  8
WAKU
  6
CONTINUOUS
 10
369.32614599999988
 20
285.58428700000002
 30
0.0
 11
369.2413029999999
 21
285.15413199999989
 31
0.0
 12
369.73149000000001
 22
285.57602099999991
 32
0.0
 13
369.73149000000001
 23
285.57602099999991
 33
0.0
  0
SOLID
  5
2B28
  8
WAKU
  6
CONTINUOUS
 10
370.53071199999999
 20
285.59087499999993
 30
0.0
 11
370.03529300000002
 21
285.46515399999993
 31
0.0
 12
370.26016800000002
 22
284.959969
 32
0.0
 13
370.26016800000002
 23
284.959969
 33
0.0
  0
SOLID
  5
2B29
  8
WAKU
  6
CONTINUOUS
 10
388.45220799999993
 20
283.49999999999989
 30
0.0
 11
389.23614399999991
 21
285.65384599999987
 31
0.0
 12
383.85152900000003
 22
285.65384599999987
 32
0.0
 13
383.85152900000003
 23
285.65384599999987
 33
0.0
  0
SOLID
  5
2B2A
  8
WAKU
  6
CONTINUOUS
 10
383.85152900000003
 20
285.65384599999987
 30
0.0
 11
383.06759299999999
 21
283.49999999999989
 31
0.0
 12
388.45220799999993
 22
283.49999999999989
 32
0.0
 13
388.45220799999993
 23
283.49999999999989
 33
0.0
  0
SOLID
  5
2B2B
  8
WAKU
  6
CONTINUOUS
 10
391.17460599999998
 20
285.65384599999987
 30
0.0
 11
390.39067
 21
283.49999999999989
 31
0.0
 12
395.45220799999993
 22
283.49999999999989
 32
0.0
 13
395.45220799999993
 23
283.49999999999989
 33
0.0
  0
SOLID
  5
2B2C
  8
WAKU
  6
CONTINUOUS
 10
395.45220799999993
 20
283.49999999999989
 30
0.0
 11
395.159221
 21
285.65384599999987
 31
0.0
 12
391.17460599999998
 22
285.65384599999987
 32
0.0
 13
391.17460599999998
 23
285.65384599999987
 33
0.0
  0
SOLID
  5
2B2D
  8
WAKU
  6
CONTINUOUS
 10
404.85152900000003
 20
285.65384599999987
 30
0.0
 11
404.06759299999999
 21
283.49999999999989
 31
0.0
 12
409.45220799999993
 22
283.49999999999989
 32
0.0
 13
409.45220799999993
 23
283.49999999999989
 33
0.0
  0
SOLID
  5
2B2E
  8
WAKU
  6
CONTINUOUS
 10
409.45220799999993
 20
283.49999999999989
 30
0.0
 11
409.15922099999989
 21
285.65384599999987
 31
0.0
 12
404.85152900000003
 22
285.65384599999987
 32
0.0
 13
404.85152900000003
 23
285.65384599999987
 33
0.0
  0
SOLID
  5
2B2F
  8
WAKU
  6
CONTINUOUS
 10
374.09068100000002
 20
285.71051999999997
 30
0.0
 11
373.195965
 21
285.2752319999999
 31
0.0
 12
373.69033499999989
 22
285.22974399999998
 32
0.0
 13
373.69033499999989
 23
285.22974399999998
 33
0.0
  0
SOLID
  5
2B30
  8
WAKU
  6
CONTINUOUS
 10
373.14526599999988
 20
285.78508900000003
 30
0.0
 11
371.98993999999999
 21
285.25143100000003
 31
0.0
 12
372.68636299999991
 22
285.32617099999987
 32
0.0
 13
372.68636299999991
 23
285.32617099999987
 33
0.0
  0
SOLID
  5
2B31
  8
WAKU
  6
CONTINUOUS
 10
372.64629600000001
 20
285.82550600000002
 30
0.0
 11
371.98993999999999
 21
285.25143100000003
 31
0.0
 12
373.14526599999988
 22
285.78508900000003
 32
0.0
 13
373.14526599999988
 23
285.78508900000003
 33
0.0
  0
SOLID
  5
2B32
  8
WAKU
  6
CONTINUOUS
 10
370.29715599999997
 20
285.96650899999992
 30
0.0
 11
370.03529300000002
 21
285.46515399999993
 31
0.0
 12
370.53071199999999
 22
285.59087499999993
 32
0.0
 13
370.53071199999999
 23
285.59087499999993
 33
0.0
  0
SOLID
  5
2B33
  8
WAKU
  6
CONTINUOUS
 10
369.923519
 20
286.03102799999988
 30
0.0
 11
369.32614599999988
 21
285.58428700000002
 31
0.0
 12
369.73149000000001
 22
285.57602099999991
 32
0.0
 13
369.73149000000001
 23
285.57602099999991
 33
0.0
  0
SOLID
  5
2B34
  8
WAKU
  6
CONTINUOUS
 10
369.50262700000002
 20
286.05359299999998
 30
0.0
 11
369.32614599999988
 21
285.58428700000002
 31
0.0
 12
369.923519
 22
286.03102799999988
 32
0.0
 13
369.923519
 23
286.03102799999988
 33
0.0
  0
SOLID
  5
2B35
  8
WAKU
  6
CONTINUOUS
 10
379.39714500000002
 20
286.13846199999989
 30
0.0
 11
378.436824
 21
283.49999999999989
 31
0.0
 12
379.51374700000002
 22
283.49999999999989
 32
0.0
 13
379.51374700000002
 23
283.49999999999989
 33
0.0
  0
SOLID
  5
2B36
  8
WAKU
  6
CONTINUOUS
 10
380.49366700000002
 20
286.19230800000003
 30
0.0
 11
379.39714500000002
 21
286.13846199999989
 31
0.0
 12
379.51374700000002
 22
283.49999999999989
 32
0.0
 13
379.51374700000002
 23
283.49999999999989
 33
0.0
  0
SOLID
  5
2B37
  8
WAKU
  6
CONTINUOUS
 10
382.75520499999988
 20
286.19230800000003
 30
0.0
 11
380.49366700000002
 21
286.19230800000003
 31
0.0
 12
381.775285
 22
283.49999999999989
 32
0.0
 13
381.775285
 23
283.49999999999989
 33
0.0
  0
SOLID
  5
2B38
  8
WAKU
  6
CONTINUOUS
 10
377.15520499999991
 20
286.19230800000003
 30
0.0
 11
380.49366700000002
 21
286.19230800000003
 31
0.0
 12
382.75520499999988
 22
286.19230800000003
 32
0.0
 13
382.75520499999988
 23
286.19230800000003
 33
0.0
  0
SOLID
  5
2B39
  8
WAKU
  6
CONTINUOUS
 10
377.15520499999991
 20
286.19230800000003
 30
0.0
 11
379.39714500000002
 21
286.13846199999989
 31
0.0
 12
380.49366700000002
 22
286.19230800000003
 32
0.0
 13
380.49366700000002
 23
286.19230800000003
 33
0.0
  0
SOLID
  5
2B3A
  8
WAKU
  6
CONTINUOUS
 10
377.15520499999991
 20
286.19230800000003
 30
0.0
 11
376.17528499999997
 21
283.49999999999989
 31
0.0
 12
379.39714500000002
 22
286.13846199999989
 32
0.0
 13
379.39714500000002
 23
286.13846199999989
 33
0.0
  0
SOLID
  5
2B3B
  8
WAKU
  6
CONTINUOUS
 10
374.427865
 20
286.20560899999992
 30
0.0
 11
373.195965
 21
285.2752319999999
 31
0.0
 12
374.09068100000002
 22
285.71051999999997
 32
0.0
 13
374.09068100000002
 23
285.71051999999997
 33
0.0
  0
SOLID
  5
2B3C
  8
WAKU
  6
CONTINUOUS
 10
373.98505
 20
286.23371800000001
 30
0.0
 11
373.195965
 21
285.2752319999999
 31
0.0
 12
374.427865
 22
286.20560899999992
 32
0.0
 13
374.427865
 23
286.20560899999992
 33
0.0
  0
SOLID
  5
2B3D
  8
WAKU
  6
CONTINUOUS
 10
370.97189600000002
 20
286.26847099999992
 30
0.0
 11
370.29715599999997
 21
285.96650899999992
 31
0.0
 12
370.53071199999999
 22
285.59087499999993
 32
0.0
 13
370.53071199999999
 23
285.59087499999993
 33
0.0
  0
SOLID
  5
2B3E
  8
WAKU
  6
CONTINUOUS
 10
373.553316
 20
286.27722899999992
 30
0.0
 11
372.64629600000001
 21
285.82550600000002
 31
0.0
 12
373.14526599999988
 22
285.78508900000003
 32
0.0
 13
373.14526599999988
 23
285.78508900000003
 33
0.0
  0
SOLID
  5
2B3F
  8
WAKU
  6
CONTINUOUS
 10
370.63867099999987
 20
286.47300000000001
 30
0.0
 11
370.29715599999997
 21
285.96650899999992
 31
0.0
 12
370.97189600000002
 22
286.26847099999992
 32
0.0
 13
370.97189600000002
 23
286.26847099999992
 33
0.0
  0
SOLID
  5
2B40
  8
WAKU
  6
CONTINUOUS
 10
373.22023799999988
 20
286.48191999999989
 30
0.0
 11
372.64629600000001
 21
285.82550600000002
 31
0.0
 12
373.553316
 22
286.27722899999992
 32
0.0
 13
373.553316
 23
286.27722899999992
 33
0.0
  0
SOLID
  5
2B41
  8
WAKU
  6
CONTINUOUS
 10
370.20703500000002
 20
286.51657
 30
0.0
 11
369.50262700000002
 21
286.05359299999998
 31
0.0
 12
369.923519
 22
286.03102799999988
 32
0.0
 13
369.923519
 23
286.03102799999988
 33
0.0
  0
SOLID
  5
2B42
  8
WAKU
  6
CONTINUOUS
 10
369.76426499999991
 20
286.54481199999998
 30
0.0
 11
369.50262700000002
 21
286.05359299999998
 31
0.0
 12
370.20703500000002
 22
286.51657
 32
0.0
 13
370.20703500000002
 23
286.51657
 33
0.0
  0
SOLID
  5
2B43
  8
WAKU
  6
CONTINUOUS
 10
374.689503
 20
286.69682799999998
 30
0.0
 11
373.98505
 21
286.23371800000001
 31
0.0
 12
374.427865
 22
286.20560899999992
 32
0.0
 13
374.427865
 23
286.20560899999992
 33
0.0
  0
SOLID
  5
2B44
  8
WAKU
  6
CONTINUOUS
 10
374.268507
 20
286.71927799999992
 30
0.0
 11
373.98505
 21
286.23371800000001
 31
0.0
 12
374.689503
 22
286.69682799999998
 32
0.0
 13
374.689503
 23
286.69682799999998
 33
0.0
  0
SOLID
  5
2B45
  8
WAKU
  6
CONTINUOUS
 10
373.89484299999998
 20
286.78369300000003
 30
0.0
 11
373.22023799999988
 21
286.48191999999989
 31
0.0
 12
373.553316
 22
286.27722899999992
 32
0.0
 13
373.553316
 23
286.27722899999992
 33
0.0
  0
SOLID
  5
2B46
  8
WAKU
  6
CONTINUOUS
 10
371.54582699999992
 20
286.92489299999988
 30
0.0
 11
370.63867099999987
 21
286.47300000000001
 31
0.0
 12
370.97189600000002
 22
286.26847099999992
 32
0.0
 13
370.97189600000002
 23
286.26847099999992
 33
0.0
  0
SOLID
  5
2B47
  8
WAKU
  6
CONTINUOUS
 10
371.04671999999999
 20
286.96517399999999
 30
0.0
 11
370.63867099999987
 21
286.47300000000001
 31
0.0
 12
371.54582699999992
 22
286.92489299999988
 32
0.0
 13
371.54582699999992
 23
286.92489299999988
 33
0.0
  0
SOLID
  5
2B48
  8
WAKU
  6
CONTINUOUS
 10
370.10144899999989
 20
287.03990099999987
 30
0.0
 11
369.76426499999991
 21
286.54481199999998
 31
0.0
 12
370.20703500000002
 22
286.51657
 32
0.0
 13
370.20703500000002
 23
286.51657
 33
0.0
  0
SOLID
  5
2B49
  8
WAKU
  6
CONTINUOUS
 10
373.66135299999991
 20
287.15953400000001
 30
0.0
 11
373.22023799999988
 21
286.48191999999989
 31
0.0
 12
373.89484299999998
 22
286.78369300000003
 32
0.0
 13
373.89484299999998
 23
286.78369300000003
 33
0.0
  0
SOLID
  5
2B4A
  8
WAKU
  6
CONTINUOUS
 10
374.86598399999991
 20
287.166134
 30
0.0
 11
374.268507
 21
286.71927799999992
 31
0.0
 12
374.689503
 22
286.69682799999998
 32
0.0
 13
374.689503
 23
286.69682799999998
 33
0.0
  0
SOLID
  5
2B4B
  8
WAKU
  6
CONTINUOUS
 10
374.46071000000001
 20
287.17424799999992
 30
0.0
 11
374.268507
 21
286.71927799999992
 31
0.0
 12
374.86598399999991
 22
287.166134
 32
0.0
 13
374.86598399999991
 23
287.166134
 33
0.0
  0
SOLID
  5
2B4C
  8
WAKU
  6
CONTINUOUS
 10
374.15673199999992
 20
287.28502999999989
 30
0.0
 11
373.66135299999991
 21
287.15953400000001
 31
0.0
 12
373.89484299999998
 22
286.78369300000003
 32
0.0
 13
373.89484299999998
 23
286.78369300000003
 33
0.0
  0
SOLID
  5
2B4D
  8
WAKU
  6
CONTINUOUS
 10
371.50563199999988
 20
287.424128
 30
0.0
 11
371.04671999999999
 21
286.96517399999999
 31
0.0
 12
371.54582699999992
 22
286.92489299999988
 32
0.0
 13
371.54582699999992
 23
286.92489299999988
 33
0.0
  0
SOLID
  5
2B4E
  8
WAKU
  6
CONTINUOUS
 10
370.99609800000002
 20
287.47510799999998
 30
0.0
 11
370.10144899999989
 21
287.03990099999987
 31
0.0
 12
370.20703500000002
 22
286.51657
 32
0.0
 13
370.20703500000002
 23
286.51657
 33
0.0
  0
SOLID
  5
2B4F
  8
WAKU
  6
CONTINUOUS
 10
372.202181
 20
287.49899099999999
 30
0.0
 11
371.50563199999988
 21
287.424128
 31
0.0
 12
371.54582699999992
 22
286.92489299999988
 32
0.0
 13
371.54582699999992
 23
286.92489299999988
 33
0.0
  0
SOLID
  5
2B50
  8
WAKU
  6
CONTINUOUS
 10
370.50179500000002
 20
287.52067699999992
 30
0.0
 11
370.10144899999989
 21
287.03990099999987
 31
0.0
 12
370.99609800000002
 22
287.47510799999998
 32
0.0
 13
370.99609800000002
 23
287.47510799999998
 33
0.0
  0
SOLID
  5
2B51
  8
WAKU
  6
CONTINUOUS
 10
374.55636099999998
 20
287.56986399999988
 30
0.0
 11
374.46071000000001
 21
287.17424799999992
 31
0.0
 12
374.86598399999991
 22
287.166134
 32
0.0
 13
374.86598399999991
 23
287.166134
 33
0.0
  0
SOLID
  5
2B52
  8
WAKU
  6
CONTINUOUS
 10
393.17245600000001
 20
287.592308
 30
0.0
 11
391.70356499999991
 21
286.51538499999998
 31
0.0
 12
392.78048799999999
 22
286.51538499999998
 32
0.0
 13
392.78048799999999
 23
286.51538499999998
 33
0.0
  0
SOLID
  5
2B53
  8
WAKU
  6
CONTINUOUS
 10
395.86476299999993
 20
287.592308
 30
0.0
 11
395.159221
 21
285.65384599999987
 31
0.0
 12
395.45220799999993
 22
283.49999999999989
 32
0.0
 13
395.45220799999993
 23
283.49999999999989
 33
0.0
  0
SOLID
  5
2B54
  8
WAKU
  6
CONTINUOUS
 10
396.941687
 20
287.592308
 30
0.0
 11
393.17245600000001
 21
287.592308
 31
0.0
 12
395.86476299999993
 22
287.592308
 32
0.0
 13
395.86476299999993
 23
287.592308
 33
0.0
  0
SOLID
  5
2B55
  8
WAKU
  6
CONTINUOUS
 10
396.941687
 20
287.592308
 30
0.0
 11
395.86476299999993
 21
287.592308
 31
0.0
 12
395.45220799999993
 22
283.49999999999989
 32
0.0
 13
395.45220799999993
 23
283.49999999999989
 33
0.0
  0
SOLID
  5
2B56
  8
WAKU
  6
CONTINUOUS
 10
392.09553299999988
 20
287.592308
 30
0.0
 11
396.941687
 21
287.592308
 31
0.0
 12
397.74937899999998
 22
287.592308
 32
0.0
 13
397.74937899999998
 23
287.592308
 33
0.0
  0
SOLID
  5
2B57
  8
WAKU
  6
CONTINUOUS
 10
392.09553299999988
 20
287.592308
 30
0.0
 11
393.17245600000001
 21
287.592308
 31
0.0
 12
396.941687
 22
287.592308
 32
0.0
 13
396.941687
 23
287.592308
 33
0.0
  0
SOLID
  5
2B58
  8
WAKU
  6
CONTINUOUS
 10
392.09553299999988
 20
287.592308
 30
0.0
 11
391.70356499999991
 21
286.51538499999998
 31
0.0
 12
393.17245600000001
 22
287.592308
 32
0.0
 13
393.17245600000001
 23
287.592308
 33
0.0
  0
SOLID
  5
2B59
  8
WAKU
  6
CONTINUOUS
 10
374.950827
 20
287.59628900000001
 30
0.0
 11
374.55636099999998
 21
287.56986399999988
 31
0.0
 12
374.86598399999991
 22
287.166134
 32
0.0
 13
374.86598399999991
 23
287.166134
 33
0.0
  0
SOLID
  5
2B5A
  8
WAKU
  6
CONTINUOUS
 10
374.32892500000003
 20
287.76198699999998
 30
0.0
 11
373.66135299999991
 21
287.15953400000001
 31
0.0
 12
374.15673199999992
 22
287.28502999999989
 32
0.0
 13
374.15673199999992
 23
287.28502999999989
 33
0.0
  0
SOLID
  5
2B5B
  8
WAKU
  6
CONTINUOUS
 10
373.93207100000001
 20
287.79040199999997
 30
0.0
 11
373.66135299999991
 21
287.15953400000001
 31
0.0
 12
374.32892500000003
 22
287.76198699999998
 32
0.0
 13
374.32892500000003
 23
287.76198699999998
 33
0.0
  0
SOLID
  5
2B5C
  8
WAKU
  6
CONTINUOUS
 10
371.99778300000003
 20
287.83223500000003
 30
0.0
 11
371.50563199999988
 21
287.424128
 31
0.0
 12
372.202181
 22
287.49899099999999
 32
0.0
 13
372.202181
 23
287.49899099999999
 33
0.0
  0
SOLID
  5
2B5D
  8
WAKU
  6
CONTINUOUS
 10
374.561802
 20
287.87725299999988
 30
0.0
 11
374.55636099999998
 21
287.56986399999988
 31
0.0
 12
374.950827
 22
287.59628900000001
 32
0.0
 13
374.950827
 23
287.59628900000001
 33
0.0
  0
SOLID
  5
2B5E
  8
WAKU
  6
CONTINUOUS
 10
372.87987799999991
 20
287.94005699999991
 30
0.0
 11
371.99778300000003
 21
287.83223500000003
 31
0.0
 12
372.202181
 22
287.49899099999999
 32
0.0
 13
372.202181
 23
287.49899099999999
 33
0.0
  0
SOLID
  5
2B5F
  8
WAKU
  6
CONTINUOUS
 10
370.95059900000001
 20
287.96947999999992
 30
0.0
 11
370.50179500000002
 21
287.52067699999992
 31
0.0
 12
370.99609800000002
 22
287.47510799999998
 32
0.0
 13
370.99609800000002
 23
287.47510799999998
 33
0.0
  0
SOLID
  5
2B60
  8
WAKU
  6
CONTINUOUS
 10
374.94091500000002
 20
287.97149300000001
 30
0.0
 11
374.561802
 21
287.87725299999988
 31
0.0
 12
374.950827
 22
287.59628900000001
 32
0.0
 13
374.950827
 23
287.59628900000001
 33
0.0
  0
SOLID
  5
2B61
  8
WAKU
  6
CONTINUOUS
 10
374.502951
 20
288.07791800000001
 30
0.0
 11
374.561802
 21
287.87725299999988
 31
0.0
 12
374.94091500000002
 22
287.97149300000001
 32
0.0
 13
374.94091500000002
 23
287.97149300000001
 33
0.0
  0
SOLID
  5
2B62
  8
WAKU
  6
CONTINUOUS
 10
408.51346299999989
 20
286.83846199999999
 30
0.0
 11
408.98382400000003
 21
288.13076899999987
 31
0.0
 12
405.75305500000002
 22
288.13076899999987
 32
0.0
 13
405.75305500000002
 23
288.13076899999987
 33
0.0
  0
SOLID
  5
2B63
  8
WAKU
  6
CONTINUOUS
 10
405.75305500000002
 20
288.13076899999987
 30
0.0
 11
405.28269399999999
 21
286.83846199999999
 31
0.0
 12
408.51346299999989
 22
286.83846199999999
 32
0.0
 13
408.51346299999989
 23
286.83846199999999
 33
0.0
  0
SOLID
  5
2B64
  8
WAKU
  6
CONTINUOUS
 10
372.50426900000002
 20
288.17382099999992
 30
0.0
 11
371.99778300000003
 21
287.83223500000003
 31
0.0
 12
372.87987799999991
 22
287.94005699999991
 32
0.0
 13
372.87987799999991
 23
287.94005699999991
 33
0.0
  0
SOLID
  5
2B65
  8
WAKU
  6
CONTINUOUS
 10
374.40481
 20
288.19624900000002
 30
0.0
 11
373.93207100000001
 21
287.79040199999997
 31
0.0
 12
374.32892500000003
 22
287.76198699999998
 32
0.0
 13
374.32892500000003
 23
287.76198699999998
 33
0.0
  0
SOLID
  5
2B66
  8
WAKU
  6
CONTINUOUS
 10
374.40481
 20
288.19624900000002
 30
0.0
 11
374.502951
 21
288.07791800000001
 31
0.0
 12
374.94091500000002
 22
287.97149300000001
 32
0.0
 13
374.94091500000002
 23
287.97149300000001
 33
0.0
  0
SOLID
  5
2B67
  8
WAKU
  6
CONTINUOUS
 10
373.510738
 20
288.21123999999998
 30
0.0
 11
372.50426900000002
 21
288.17382099999992
 31
0.0
 12
372.87987799999991
 22
287.94005699999991
 32
0.0
 13
372.87987799999991
 23
287.94005699999991
 33
0.0
  0
SOLID
  5
2B68
  8
WAKU
  6
CONTINUOUS
 10
371.954587
 20
288.26428399999992
 30
0.0
 11
370.95059900000001
 21
287.96947999999992
 31
0.0
 12
370.99609800000002
 22
287.47510799999998
 32
0.0
 13
370.99609800000002
 23
287.47510799999998
 33
0.0
  0
SOLID
  5
2B69
  8
WAKU
  6
CONTINUOUS
 10
374.836612
 20
288.27796699999999
 30
0.0
 11
374.40481
 21
288.19624900000002
 31
0.0
 12
374.94091500000002
 22
287.97149300000001
 32
0.0
 13
374.94091500000002
 23
287.97149300000001
 33
0.0
  0
SOLID
  5
2B6A
  8
WAKU
  6
CONTINUOUS
 10
374.01922899999988
 20
288.29856899999987
 30
0.0
 11
372.50426900000002
 21
288.17382099999992
 31
0.0
 12
373.510738
 22
288.21123999999998
 32
0.0
 13
373.510738
 23
288.21123999999998
 33
0.0
  0
SOLID
  5
2B6B
  8
WAKU
  6
CONTINUOUS
 10
374.01922899999988
 20
288.29856899999987
 30
0.0
 11
374.40481
 21
288.19624900000002
 31
0.0
 12
374.836612
 22
288.27796699999999
 32
0.0
 13
374.836612
 23
288.27796699999999
 33
0.0
  0
SOLID
  5
2B6C
  8
WAKU
  6
CONTINUOUS
 10
374.01922899999988
 20
288.29856899999987
 30
0.0
 11
373.93207100000001
 21
287.79040199999997
 31
0.0
 12
374.40481
 22
288.19624900000002
 32
0.0
 13
374.40481
 23
288.19624900000002
 33
0.0
  0
SOLID
  5
2B6D
  8
WAKU
  6
CONTINUOUS
 10
371.43137400000001
 20
288.36982599999999
 30
0.0
 11
370.95059900000001
 21
287.96947999999992
 31
0.0
 12
371.954587
 22
288.26428399999992
 32
0.0
 13
371.954587
 23
288.26428399999992
 33
0.0
  0
SOLID
  5
2B6E
  8
WAKU
  6
CONTINUOUS
 10
373.00563899999997
 20
288.43576799999988
 30
0.0
 11
372.50426900000002
 21
288.17382099999992
 31
0.0
 12
374.01922899999988
 22
288.29856899999987
 32
0.0
 13
374.01922899999988
 23
288.29856899999987
 33
0.0
  0
SOLID
  5
2B6F
  8
WAKU
  6
CONTINUOUS
 10
374.641749
 20
288.50445200000001
 30
0.0
 11
373.00563899999997
 21
288.43576799999988
 31
0.0
 12
374.01922899999988
 22
288.29856899999987
 32
0.0
 13
374.01922899999988
 23
288.29856899999987
 33
0.0
  0
SOLID
  5
2B70
  8
WAKU
  6
CONTINUOUS
 10
374.641749
 20
288.50445200000001
 30
0.0
 11
374.01922899999988
 21
288.29856899999987
 31
0.0
 12
374.836612
 22
288.27796699999999
 32
0.0
 13
374.836612
 23
288.27796699999999
 33
0.0
  0
SOLID
  5
2B71
  8
WAKU
  6
CONTINUOUS
 10
372.44023499999997
 20
288.54758500000003
 30
0.0
 11
371.43137400000001
 21
288.36982599999999
 31
0.0
 12
371.954587
 22
288.26428399999992
 32
0.0
 13
371.954587
 23
288.26428399999992
 33
0.0
  0
SOLID
  5
2B72
  8
WAKU
  6
CONTINUOUS
 10
373.48263600000001
 20
288.60801400000003
 30
0.0
 11
373.00563899999997
 21
288.43576799999988
 31
0.0
 12
374.641749
 22
288.50445200000001
 32
0.0
 13
374.641749
 23
288.50445200000001
 33
0.0
  0
SOLID
  5
2B73
  8
WAKU
  6
CONTINUOUS
 10
374.36348399999991
 20
288.64263
 30
0.0
 11
373.48263600000001
 21
288.60801400000003
 31
0.0
 12
374.641749
 22
288.50445200000001
 32
0.0
 13
374.641749
 23
288.50445200000001
 33
0.0
  0
SOLID
  5
2B74
  8
WAKU
  6
CONTINUOUS
 10
373.91694100000001
 20
288.683944
 30
0.0
 11
373.48263600000001
 21
288.60801400000003
 31
0.0
 12
374.36348399999991
 22
288.64263
 32
0.0
 13
374.36348399999991
 23
288.64263
 33
0.0
  0
SOLID
  5
2B75
  8
WAKU
  6
CONTINUOUS
 10
371.92646400000001
 20
288.70701000000003
 30
0.0
 11
371.43137400000001
 21
288.36982599999999
 31
0.0
 12
372.44023499999997
 22
288.54758500000003
 32
0.0
 13
372.44023499999997
 23
288.54758500000003
 33
0.0
  0
SOLID
  5
2B76
  8
WAKU
  6
CONTINUOUS
 10
372.89513999999991
 20
288.74006500000002
 30
0.0
 11
371.92646400000001
 21
288.70701000000003
 31
0.0
 12
372.44023499999997
 22
288.54758500000003
 32
0.0
 13
372.44023499999997
 23
288.54758500000003
 33
0.0
  0
SOLID
  5
2B77
  8
WAKU
  6
CONTINUOUS
 10
381.5248509999999
 20
288.7769229999999
 30
0.0
 11
377.15520499999991
 21
286.19230800000003
 31
0.0
 12
382.75520499999988
 22
286.19230800000003
 32
0.0
 13
382.75520499999988
 23
286.19230800000003
 33
0.0
  0
SOLID
  5
2B78
  8
WAKU
  6
CONTINUOUS
 10
380.31131299999993
 20
288.7769229999999
 30
0.0
 11
381.5248509999999
 21
288.7769229999999
 31
0.0
 12
383.69592799999992
 22
288.7769229999999
 32
0.0
 13
383.69592799999992
 23
288.7769229999999
 33
0.0
  0
SOLID
  5
2B79
  8
WAKU
  6
CONTINUOUS
 10
380.31131299999993
 20
288.7769229999999
 30
0.0
 11
377.15520499999991
 21
286.19230800000003
 31
0.0
 12
381.5248509999999
 22
288.7769229999999
 32
0.0
 13
381.5248509999999
 23
288.7769229999999
 33
0.0
  0
SOLID
  5
2B7A
  8
WAKU
  6
CONTINUOUS
 10
373.799148
 20
288.78192899999988
 30
0.0
 11
373.91694100000001
 21
288.683944
 31
0.0
 12
374.36348399999991
 22
288.64263
 32
0.0
 13
374.36348399999991
 23
288.64263
 33
0.0
  0
SOLID
  5
2B7B
  8
WAKU
  6
CONTINUOUS
 10
373.2908569999999
 20
288.83558099999988
 30
0.0
 11
371.92646400000001
 21
288.70701000000003
 31
0.0
 12
372.89513999999991
 22
288.74006500000002
 32
0.0
 13
372.89513999999991
 23
288.74006500000002
 33
0.0
  0
SOLID
  5
2B7C
  8
WAKU
  6
CONTINUOUS
 10
373.59799600000002
 20
288.84090200000003
 30
0.0
 11
373.799148
 21
288.78192899999988
 31
0.0
 12
374.36348399999991
 22
288.64263
 32
0.0
 13
374.36348399999991
 23
288.64263
 33
0.0
  0
SOLID
  5
2B7D
  8
WAKU
  6
CONTINUOUS
 10
401.25888099999997
 20
286.73076900000001
 30
0.0
 11
402.04281700000001
 21
288.884615
 31
0.0
 12
400.96589399999988
 22
288.884615
 32
0.0
 13
400.96589399999988
 23
288.884615
 33
0.0
  0
SOLID
  5
2B7E
  8
WAKU
  6
CONTINUOUS
 10
400.96589399999988
 20
288.884615
 30
0.0
 11
400.18195800000001
 21
286.73076900000001
 31
0.0
 12
401.25888099999997
 22
286.73076900000001
 32
0.0
 13
401.25888099999997
 23
286.73076900000001
 33
0.0
  0
SOLID
  5
2B7F
  8
WAKU
  6
CONTINUOUS
 10
401.42477599999989
 20
285.115385
 30
0.0
 11
403.87358699999999
 21
288.884615
 31
0.0
 12
402.79666299999991
 22
288.884615
 32
0.0
 13
402.79666299999991
 23
288.884615
 33
0.0
  0
SOLID
  5
2B80
  8
WAKU
  6
CONTINUOUS
 10
403.87358699999999
 20
288.884615
 30
0.0
 11
401.42477599999989
 21
285.115385
 31
0.0
 12
401.913747
 22
283.49999999999989
 32
0.0
 13
401.913747
 23
283.49999999999989
 33
0.0
  0
SOLID
  5
2B81
  8
WAKU
  6
CONTINUOUS
 10
399.858881
 20
286.73076900000001
 30
0.0
 11
400.64281699999992
 21
288.884615
 31
0.0
 12
399.56589400000001
 22
288.884615
 32
0.0
 13
399.56589400000001
 23
288.884615
 33
0.0
  0
SOLID
  5
2B82
  8
WAKU
  6
CONTINUOUS
 10
399.56589400000001
 20
288.884615
 30
0.0
 11
398.78195799999997
 21
286.73076900000001
 31
0.0
 12
399.858881
 22
286.73076900000001
 32
0.0
 13
399.858881
 23
286.73076900000001
 33
0.0
  0
SOLID
  5
2B83
  8
WAKU
  6
CONTINUOUS
 10
374.22530599999988
 20
288.92089499999997
 30
0.0
 11
373.59799600000002
 21
288.84090200000003
 31
0.0
 12
374.36348399999991
 22
288.64263
 32
0.0
 13
374.36348399999991
 23
288.64263
 33
0.0
  0
SOLID
  5
2B84
  8
WAKU
  6
CONTINUOUS
 10
372.41768300000001
 20
288.96864799999992
 30
0.0
 11
373.59799600000002
 21
288.84090200000003
 31
0.0
 12
374.22530599999988
 22
288.92089499999997
 32
0.0
 13
374.22530599999988
 23
288.92089499999997
 33
0.0
  0
SOLID
  5
2B85
  8
WAKU
  6
CONTINUOUS
 10
372.41768300000001
 20
288.96864799999992
 30
0.0
 11
373.2908569999999
 21
288.83558099999988
 31
0.0
 12
373.59799600000002
 22
288.84090200000003
 32
0.0
 13
373.59799600000002
 23
288.84090200000003
 33
0.0
  0
SOLID
  5
2B86
  8
WAKU
  6
CONTINUOUS
 10
372.41768300000001
 20
288.96864799999992
 30
0.0
 11
371.92646400000001
 21
288.70701000000003
 31
0.0
 12
373.2908569999999
 22
288.83558099999988
 32
0.0
 13
373.2908569999999
 23
288.83558099999988
 33
0.0
  0
SOLID
  5
2B87
  8
WAKU
  6
CONTINUOUS
 10
373.99882100000002
 20
289.11575699999992
 30
0.0
 11
372.41768300000001
 21
288.96864799999992
 31
0.0
 12
374.22530599999988
 22
288.92089499999997
 32
0.0
 13
374.22530599999988
 23
288.92089499999997
 33
0.0
  0
SOLID
  5
2B88
  8
WAKU
  6
CONTINUOUS
 10
372.88698799999992
 20
289.145129
 30
0.0
 11
372.41768300000001
 21
288.96864799999992
 31
0.0
 12
373.99882100000002
 22
289.11575699999992
 32
0.0
 13
373.99882100000002
 23
289.11575699999992
 33
0.0
  0
SOLID
  5
2B89
  8
WAKU
  6
CONTINUOUS
 10
398.33733100000001
 20
289.20769200000001
 30
0.0
 11
391.28784000000002
 21
287.592308
 31
0.0
 12
392.09553299999988
 22
287.592308
 32
0.0
 13
392.09553299999988
 23
287.592308
 33
0.0
  0
SOLID
  5
2B8A
  8
WAKU
  6
CONTINUOUS
 10
398.33733100000001
 20
289.20769200000001
 30
0.0
 11
392.09553299999988
 21
287.592308
 31
0.0
 12
397.74937899999998
 22
287.592308
 32
0.0
 13
397.74937899999998
 23
287.592308
 33
0.0
  0
SOLID
  5
2B8B
  8
WAKU
  6
CONTINUOUS
 10
391.28784000000002
 20
287.592308
 30
0.0
 11
398.33733100000001
 21
289.20769200000001
 31
0.0
 12
397.52963799999992
 22
289.20769200000001
 32
0.0
 13
397.52963799999992
 23
289.20769200000001
 33
0.0
  0
SOLID
  5
2B8C
  8
WAKU
  6
CONTINUOUS
 10
391.87579199999999
 20
289.20769200000001
 30
0.0
 11
391.28784000000002
 21
287.592308
 31
0.0
 12
397.52963799999992
 22
289.20769200000001
 32
0.0
 13
397.52963799999992
 23
289.20769200000001
 33
0.0
  0
SOLID
  5
2B8D
  8
WAKU
  6
CONTINUOUS
 10
397.52963799999992
 20
289.20769200000001
 30
0.0
 11
392.68348500000002
 21
289.20769200000001
 31
0.0
 12
391.87579199999999
 22
289.20769200000001
 32
0.0
 13
391.87579199999999
 23
289.20769200000001
 33
0.0
  0
SOLID
  5
2B8E
  8
WAKU
  6
CONTINUOUS
 10
393.76040799999993
 20
289.20769200000001
 30
0.0
 11
392.68348500000002
 21
289.20769200000001
 31
0.0
 12
397.52963799999992
 22
289.20769200000001
 32
0.0
 13
397.52963799999992
 23
289.20769200000001
 33
0.0
  0
SOLID
  5
2B8F
  8
WAKU
  6
CONTINUOUS
 10
397.52963799999992
 20
289.20769200000001
 30
0.0
 11
396.45271500000001
 21
289.20769200000001
 31
0.0
 12
393.76040799999993
 22
289.20769200000001
 32
0.0
 13
393.76040799999993
 23
289.20769200000001
 33
0.0
  0
SOLID
  5
2B90
  8
WAKU
  6
CONTINUOUS
 10
373.69234799999992
 20
289.22005999999988
 30
0.0
 11
372.88698799999992
 21
289.145129
 31
0.0
 12
373.99882100000002
 22
289.11575699999992
 32
0.0
 13
373.99882100000002
 23
289.11575699999992
 33
0.0
  0
SOLID
  5
2B91
  8
WAKU
  6
CONTINUOUS
 10
373.31714299999999
 20
289.22997199999998
 30
0.0
 11
372.88698799999992
 21
289.145129
 31
0.0
 12
373.69234799999992
 22
289.22005999999988
 32
0.0
 13
373.69234799999992
 23
289.22005999999988
 33
0.0
  0
SOLID
  5
2B92
  8
WAKU
  6
CONTINUOUS
 10
367.97127599999999
 20
286.22222199999999
 30
0.0
 11
372.24905299999989
 21
290.5
 31
0.0
 12
367.97127599999999
 22
290.5
 32
0.0
 13
367.97127599999999
 23
290.5
 33
0.0
  0
SOLID
  5
2B93
  8
WAKU
  6
CONTINUOUS
 10
409.21900499999998
 20
288.7769229999999
 30
0.0
 11
409.84615400000001
 21
290.5
 31
0.0
 12
406.615385
 22
290.5
 32
0.0
 13
406.615385
 23
290.5
 33
0.0
  0
SOLID
  5
2B94
  8
WAKU
  6
CONTINUOUS
 10
406.615385
 20
290.5
 30
0.0
 11
405.98823599999992
 21
288.7769229999999
 31
0.0
 12
409.21900499999998
 22
288.7769229999999
 32
0.0
 13
409.21900499999998
 23
288.7769229999999
 33
0.0
  0
SOLID
  5
2B95
  8
WAKU
  6
CONTINUOUS
 10
409.15922099999989
 20
285.65384599999987
 30
0.0
 11
412.0
 21
290.5
 31
0.0
 12
410.92307699999992
 22
290.5
 32
0.0
 13
410.92307699999992
 23
290.5
 33
0.0
  0
SOLID
  5
2B96
  8
WAKU
  6
CONTINUOUS
 10
412.0
 20
290.5
 30
0.0
 11
409.15922099999989
 21
285.65384599999987
 31
0.0
 12
409.45220799999993
 22
283.49999999999989
 32
0.0
 13
409.45220799999993
 23
283.49999999999989
 33
0.0
  0
SOLID
  5
2B97
  8
WAKU
  6
CONTINUOUS
 10
378.0959279999999
 20
288.7769229999999
 30
0.0
 11
384.32307700000001
 21
290.5
 31
0.0
 12
378.72307699999988
 22
290.5
 32
0.0
 13
378.72307699999988
 23
290.5
 33
0.0
  0
SOLID
  5
2B98
  8
WAKU
  6
CONTINUOUS
 10
384.32307700000001
 20
290.5
 30
0.0
 11
378.0959279999999
 21
288.7769229999999
 31
0.0
 12
380.31131299999993
 22
288.7769229999999
 32
0.0
 13
380.31131299999993
 23
288.7769229999999
 33
0.0
  0
SOLID
  5
2B99
  8
WAKU
  6
CONTINUOUS
 10
384.32307700000001
 20
290.5
 30
0.0
 11
380.31131299999993
 21
288.7769229999999
 31
0.0
 12
383.69592799999992
 22
288.7769229999999
 32
0.0
 13
383.69592799999992
 23
288.7769229999999
 33
0.0
  0
SOLID
  5
2B9A
  8
WAKU
  6
CONTINUOUS
 10
390.37285099999991
 20
288.7769229999999
 30
0.0
 11
391.0
 21
290.5
 31
0.0
 12
385.615385
 22
290.5
 32
0.0
 13
385.615385
 23
290.5
 33
0.0
  0
SOLID
  5
2B9B
  8
WAKU
  6
CONTINUOUS
 10
385.615385
 20
290.5
 30
0.0
 11
384.98823599999992
 21
288.7769229999999
 31
0.0
 12
390.37285099999991
 22
288.7769229999999
 32
0.0
 13
390.37285099999991
 23
288.7769229999999
 33
0.0
  0
SOLID
  5
2B9C
  8
WAKU
  6
CONTINUOUS
 10
393.76040799999993
 20
289.20769200000001
 30
0.0
 11
394.23076900000001
 21
290.5
 31
0.0
 12
393.15384599999999
 22
290.5
 32
0.0
 13
393.15384599999999
 23
290.5
 33
0.0
  0
SOLID
  5
2B9D
  8
WAKU
  6
CONTINUOUS
 10
393.15384599999999
 20
290.5
 30
0.0
 11
392.68348500000002
 21
289.20769200000001
 31
0.0
 12
393.76040799999993
 22
289.20769200000001
 32
0.0
 13
393.76040799999993
 23
289.20769200000001
 33
0.0
  0
SOLID
  5
2B9E
  8
WAKU
  6
CONTINUOUS
 10
396.45271500000001
 20
289.20769200000001
 30
0.0
 11
398.0
 21
290.5
 31
0.0
 12
396.92307699999992
 22
290.5
 32
0.0
 13
396.92307699999992
 23
290.5
 33
0.0
  0
SOLID
  5
2B9F
  8
WAKU
  6
CONTINUOUS
 10
398.0
 20
290.5
 30
0.0
 11
396.45271500000001
 21
289.20769200000001
 31
0.0
 12
397.52963799999992
 22
289.20769200000001
 32
0.0
 13
397.52963799999992
 23
289.20769200000001
 33
0.0
  0
ENDBLK
  5
2BA1
  8
0
  0
ENDSEC
  0
SECTION
  2
ENTITIES
  0
LINE
  5
43
  8
WAKU
 10
755.0
 20
505.0
 30
0.0
 11
755.0
 21
5.0
 31
0.0
  0
LINE
  5
46
  8
WAKU
 10
5.0
 20
505.0
 30
0.0
 11
5.0
 21
5.0
 31
0.0
  0
LINE
  5
55
  8
WAKU
 10
5.0
 20
5.0
 30
0.0
 11
755.0
 21
5.0
 31
0.0
  0
TEXT
  5
562
  8
WAKU
 10
34.469413000000003
 20
497.67056799999989
 30
0.0
 40
5.0
  1
引違い窓 面付け枠断面詳細図  S100H016.dxf
 41
0.9769999999999999
  0
LINE
  5
572
  8
WAKU
 10
5.0
 20
495.0
 30
0.0
 11
755.0
 21
495.0
 31
0.0
  0
TEXT
  5
629
  8
WAKU
 10
10.048814999999991
 20
498.43971699999997
 30
0.0
 40
3.0
  1
FNS-100
 41
0.8759999999999998
  0
LINE
  5
CBC
  8
WAKU
  6
CONTINUOUS
 10
733.76040799999998
 20
502.20769199999989
 30
0.0
 11
736.45271500000001
 21
502.20769199999989
 31
0.0
  0
LINE
  5
CBD
  8
WAKU
  6
CONTINUOUS
 10
733.17245600000001
 20
500.592308
 30
0.0
 11
735.86476300000004
 21
500.592308
 31
0.0
  0
LINE
  5
CBE
  8
WAKU
  6
CONTINUOUS
 10
730.39066999999989
 20
496.49999999999989
 30
0.0
 11
735.45220800000004
 21
496.49999999999989
 31
0.0
  0
LINE
  5
CBF
  8
WAKU
  6
CONTINUOUS
 10
735.15922099999989
 20
498.65384599999999
 30
0.0
 11
735.86476300000004
 21
500.592308
 31
0.0
  0
LINE
  5
CC0
  8
WAKU
  6
CONTINUOUS
 10
707.97127599999988
 20
503.5
 30
0.0
 11
712.249053
 21
503.5
 31
0.0
  0
LINE
  5
CC1
  8
WAKU
  6
CONTINUOUS
 10
707.97127599999988
 20
499.22222199999999
 30
0.0
 11
712.249053
 21
503.5
 31
0.0
  0
LINE
  5
CC2
  8
WAKU
  6
CONTINUOUS
 10
707.97127599999988
 20
503.5
 30
0.0
 11
707.97127599999988
 21
499.22222199999999
 31
0.0
  0
LINE
  5
CC3
  8
WAKU
  6
CONTINUOUS
 10
721.52485100000001
 20
501.77692300000001
 30
0.0
 11
723.69592799999987
 21
501.77692300000001
 31
0.0
  0
LINE
  5
CC4
  8
WAKU
  6
CONTINUOUS
 10
718.72307699999999
 20
503.5
 30
0.0
 11
724.32307700000001
 21
503.5
 31
0.0
  0
LINE
  5
CC5
  8
WAKU
  6
CONTINUOUS
 10
720.31131300000004
 20
501.77692300000001
 30
0.0
 11
717.15520500000002
 21
499.19230800000003
 31
0.0
  0
LINE
  5
CC6
  8
WAKU
  6
CONTINUOUS
 10
721.52485100000001
 20
501.77692300000001
 30
0.0
 11
722.75520499999993
 21
499.19230800000003
 31
0.0
  0
LINE
  5
CC7
  8
WAKU
  6
CONTINUOUS
 10
716.17528499999992
 20
496.49999999999989
 30
0.0
 11
717.15520500000002
 21
499.19230800000003
 31
0.0
  0
LINE
  5
CC8
  8
WAKU
  6
CONTINUOUS
 10
719.39714500000002
 20
499.13846199999989
 30
0.0
 11
716.17528499999992
 21
496.49999999999989
 31
0.0
  0
LINE
  5
CC9
  8
WAKU
  6
CONTINUOUS
 10
721.77528499999994
 20
496.49999999999989
 30
0.0
 11
722.75520499999993
 21
499.19230800000003
 31
0.0
  0
LINE
  5
CCA
  8
WAKU
  6
CONTINUOUS
 10
720.49366699999985
 20
499.19230800000003
 30
0.0
 11
721.77528499999994
 21
496.49999999999989
 31
0.0
  0
LINE
  5
CCB
  8
WAKU
  6
CONTINUOUS
 10
719.51374699999985
 20
496.49999999999989
 30
0.0
 11
720.49366699999985
 21
499.19230800000003
 31
0.0
  0
LINE
  5
CCC
  8
WAKU
  6
CONTINUOUS
 10
718.436824
 20
496.49999999999989
 30
0.0
 11
719.51374699999985
 21
496.49999999999989
 31
0.0
  0
LINE
  5
CCD
  8
WAKU
  6
CONTINUOUS
 10
718.436824
 20
496.49999999999989
 30
0.0
 11
719.39714500000002
 21
499.13846199999989
 31
0.0
  0
LINE
  5
CCE
  8
WAKU
  6
CONTINUOUS
 10
718.09592799999996
 20
501.77692300000001
 30
0.0
 11
720.31131300000004
 21
501.77692300000001
 31
0.0
  0
LINE
  5
CCF
  8
WAKU
  6
CONTINUOUS
 10
718.72307699999999
 20
503.5
 30
0.0
 11
718.09592799999996
 21
501.77692300000001
 31
0.0
  0
LINE
  5
CD0
  8
WAKU
  6
CONTINUOUS
 10
732.78048799999999
 20
499.51538499999998
 30
0.0
 11
733.17245600000001
 21
500.592308
 31
0.0
  0
LINE
  5
CD1
  8
WAKU
  6
CONTINUOUS
 10
731.70356500000003
 20
499.51538499999998
 30
0.0
 11
732.09553300000005
 21
500.592308
 31
0.0
  0
LINE
  5
CD2
  8
WAKU
  6
CONTINUOUS
 10
728.45220800000004
 20
496.49999999999989
 30
0.0
 11
729.23614399999997
 21
498.65384599999999
 31
0.0
  0
LINE
  5
CD3
  8
WAKU
  6
CONTINUOUS
 10
723.85152900000003
 20
498.65384599999999
 30
0.0
 11
729.23614399999997
 21
498.65384599999999
 31
0.0
  0
LINE
  5
CD4
  8
WAKU
  6
CONTINUOUS
 10
723.06759299999999
 20
496.49999999999989
 30
0.0
 11
723.85152900000003
 21
498.65384599999999
 31
0.0
  0
LINE
  5
CD5
  8
WAKU
  6
CONTINUOUS
 10
723.06759299999999
 20
496.49999999999989
 30
0.0
 11
728.45220800000004
 21
496.49999999999989
 31
0.0
  0
LINE
  5
CD6
  8
WAKU
  6
CONTINUOUS
 10
731.17460599999993
 20
498.65384599999999
 30
0.0
 11
735.15922099999989
 21
498.65384599999999
 31
0.0
  0
LINE
  5
CD7
  8
WAKU
  6
CONTINUOUS
 10
731.70356500000003
 20
499.51538499999998
 30
0.0
 11
732.78048799999999
 21
499.51538499999998
 31
0.0
  0
LINE
  5
CD8
  8
WAKU
  6
CONTINUOUS
 10
730.39066999999989
 20
496.49999999999989
 30
0.0
 11
731.17460599999993
 21
498.65384599999999
 31
0.0
  0
LINE
  5
CD9
  8
WAKU
  6
CONTINUOUS
 10
724.98823600000003
 20
501.77692300000001
 30
0.0
 11
730.37285099999997
 21
501.77692300000001
 31
0.0
  0
LINE
  5
CDA
  8
WAKU
  6
CONTINUOUS
 10
725.61538499999995
 20
503.5
 30
0.0
 11
731.0
 21
503.5
 31
0.0
  0
LINE
  5
CDB
  8
WAKU
  6
CONTINUOUS
 10
724.98823600000003
 20
501.77692300000001
 30
0.0
 11
725.61538499999995
 21
503.5
 31
0.0
  0
LINE
  5
CDC
  8
WAKU
  6
CONTINUOUS
 10
724.32307700000001
 20
503.5
 30
0.0
 11
723.69592799999987
 21
501.77692300000001
 31
0.0
  0
LINE
  5
CDD
  8
WAKU
  6
CONTINUOUS
 10
733.15384600000004
 20
503.5
 30
0.0
 11
734.23076900000001
 21
503.5
 31
0.0
  0
LINE
  5
CDE
  8
WAKU
  6
CONTINUOUS
 10
733.76040799999998
 20
502.20769199999989
 30
0.0
 11
734.23076900000001
 21
503.5
 31
0.0
  0
LINE
  5
CDF
  8
WAKU
  6
CONTINUOUS
 10
731.87579200000005
 20
502.20769199999989
 30
0.0
 11
732.68348500000002
 21
502.20769199999989
 31
0.0
  0
LINE
  5
CE0
  8
WAKU
  6
CONTINUOUS
 10
731.28783999999996
 20
500.592308
 30
0.0
 11
732.09553300000005
 21
500.592308
 31
0.0
  0
LINE
  5
CE1
  8
WAKU
  6
CONTINUOUS
 10
731.28783999999996
 20
500.592308
 30
0.0
 11
731.87579200000005
 21
502.20769199999989
 31
0.0
  0
LINE
  5
CE2
  8
WAKU
  6
CONTINUOUS
 10
732.68348500000002
 20
502.20769199999989
 30
0.0
 11
733.15384600000004
 21
503.5
 31
0.0
  0
LINE
  5
CE3
  8
WAKU
  6
CONTINUOUS
 10
730.37285099999997
 20
501.77692300000001
 30
0.0
 11
731.0
 21
503.5
 31
0.0
  0
LINE
  5
CE4
  8
WAKU
  6
CONTINUOUS
 10
745.75305500000002
 20
501.13076899999999
 30
0.0
 11
748.98382400000003
 21
501.13076899999999
 31
0.0
  0
LINE
  5
CE5
  8
WAKU
  6
CONTINUOUS
 10
745.28269399999999
 20
499.83846199999999
 30
0.0
 11
748.513463
 21
499.83846199999999
 31
0.0
  0
LINE
  5
CE6
  8
WAKU
  6
CONTINUOUS
 10
749.45220800000004
 20
496.49999999999989
 30
0.0
 11
744.06759299999999
 21
496.49999999999989
 31
0.0
  0
LINE
  5
CE7
  8
WAKU
  6
CONTINUOUS
 10
744.85152900000003
 20
498.65384599999999
 30
0.0
 11
749.159221
 21
498.65384599999999
 31
0.0
  0
LINE
  5
CE8
  8
WAKU
  6
CONTINUOUS
 10
745.98823600000003
 20
501.77692300000001
 30
0.0
 11
749.21900499999992
 21
501.77692300000001
 31
0.0
  0
LINE
  5
CE9
  8
WAKU
  6
CONTINUOUS
 10
746.61538499999995
 20
503.5
 30
0.0
 11
749.84615399999996
 21
503.5
 31
0.0
  0
LINE
  5
CEA
  8
WAKU
  6
CONTINUOUS
 10
738.78195800000003
 20
499.73076900000001
 30
0.0
 11
739.56589399999996
 21
501.884615
 31
0.0
  0
LINE
  5
CEB
  8
WAKU
  6
CONTINUOUS
 10
740.18195800000001
 20
499.73076900000001
 30
0.0
 11
740.96589400000005
 21
501.884615
 31
0.0
  0
LINE
  5
CEC
  8
WAKU
  6
CONTINUOUS
 10
739.85888099999988
 20
499.73076900000001
 30
0.0
 11
740.64281700000004
 21
501.884615
 31
0.0
  0
LINE
  5
CED
  8
WAKU
  6
CONTINUOUS
 10
741.25888099999986
 20
499.73076900000001
 30
0.0
 11
742.04281700000001
 21
501.884615
 31
0.0
  0
LINE
  5
CEE
  8
WAKU
  6
CONTINUOUS
 10
741.91374699999994
 20
496.49999999999989
 30
0.0
 11
743.87358700000004
 21
501.884615
 31
0.0
  0
LINE
  5
CEF
  8
WAKU
  6
CONTINUOUS
 10
741.42477599999995
 20
498.11538499999989
 30
0.0
 11
742.79666299999997
 21
501.884615
 31
0.0
  0
LINE
  5
CF0
  8
WAKU
  6
CONTINUOUS
 10
735.45220800000004
 20
496.49999999999989
 30
0.0
 11
736.941687
 21
500.592308
 31
0.0
  0
LINE
  5
CF1
  8
WAKU
  6
CONTINUOUS
 10
737.60605499999997
 20
496.49999999999989
 30
0.0
 11
741.91374699999994
 21
496.49999999999989
 31
0.0
  0
LINE
  5
CF2
  8
WAKU
  6
CONTINUOUS
 10
738.78195800000003
 20
499.73076900000001
 30
0.0
 11
739.85888099999988
 21
499.73076900000001
 31
0.0
  0
LINE
  5
CF3
  8
WAKU
  6
CONTINUOUS
 10
738.19400599999994
 20
498.11538499999989
 30
0.0
 11
741.42477599999995
 21
498.11538499999989
 31
0.0
  0
LINE
  5
CF4
  8
WAKU
  6
CONTINUOUS
 10
737.60605499999997
 20
496.49999999999989
 30
0.0
 11
738.19400599999994
 21
498.11538499999989
 31
0.0
  0
LINE
  5
CF5
  8
WAKU
  6
CONTINUOUS
 10
740.18195800000001
 20
499.73076900000001
 30
0.0
 11
741.25888099999986
 21
499.73076900000001
 31
0.0
  0
LINE
  5
CF6
  8
WAKU
  6
CONTINUOUS
 10
744.06759299999999
 20
496.49999999999989
 30
0.0
 11
744.85152900000003
 21
498.65384599999999
 31
0.0
  0
LINE
  5
CF7
  8
WAKU
  6
CONTINUOUS
 10
740.96589400000005
 20
501.884615
 30
0.0
 11
742.04281700000001
 21
501.884615
 31
0.0
  0
LINE
  5
CF8
  8
WAKU
  6
CONTINUOUS
 10
736.92307699999992
 20
503.5
 30
0.0
 11
738.0
 21
503.5
 31
0.0
  0
LINE
  5
CF9
  8
WAKU
  6
CONTINUOUS
 10
737.52963799999986
 20
502.20769199999989
 30
0.0
 11
738.0
 21
503.5
 31
0.0
  0
LINE
  5
CFA
  8
WAKU
  6
CONTINUOUS
 10
737.52963799999986
 20
502.20769199999989
 30
0.0
 11
738.33733099999995
 21
502.20769199999989
 31
0.0
  0
LINE
  5
CFB
  8
WAKU
  6
CONTINUOUS
 10
736.941687
 20
500.592308
 30
0.0
 11
737.74937899999986
 21
500.592308
 31
0.0
  0
LINE
  5
CFC
  8
WAKU
  6
CONTINUOUS
 10
737.74937899999986
 20
500.592308
 30
0.0
 11
738.33733099999995
 21
502.20769199999989
 31
0.0
  0
LINE
  5
CFD
  8
WAKU
  6
CONTINUOUS
 10
739.56589399999996
 20
501.884615
 30
0.0
 11
740.64281700000004
 21
501.884615
 31
0.0
  0
LINE
  5
CFE
  8
WAKU
  6
CONTINUOUS
 10
736.45271500000001
 20
502.20769199999989
 30
0.0
 11
736.92307699999992
 21
503.5
 31
0.0
  0
LINE
  5
CFF
  8
WAKU
  6
CONTINUOUS
 10
746.61538499999995
 20
503.5
 30
0.0
 11
745.98823600000003
 21
501.77692300000001
 31
0.0
  0
LINE
  5
D00
  8
WAKU
  6
CONTINUOUS
 10
745.75305500000002
 20
501.13076899999999
 30
0.0
 11
745.28269399999999
 21
499.83846199999999
 31
0.0
  0
LINE
  5
D01
  8
WAKU
  6
CONTINUOUS
 10
742.79666299999997
 20
501.884615
 30
0.0
 11
743.87358700000004
 21
501.884615
 31
0.0
  0
LINE
  5
D02
  8
WAKU
  6
CONTINUOUS
 10
749.159221
 20
498.65384599999999
 30
0.0
 11
750.92307699999992
 21
503.5
 31
0.0
  0
LINE
  5
D03
  8
WAKU
  6
CONTINUOUS
 10
749.45220800000004
 20
496.49999999999989
 30
0.0
 11
752.0
 21
503.5
 31
0.0
  0
LINE
  5
D04
  8
WAKU
  6
CONTINUOUS
 10
749.21900499999992
 20
501.77692300000001
 30
0.0
 11
749.84615399999996
 21
503.5
 31
0.0
  0
LINE
  5
D05
  8
WAKU
  6
CONTINUOUS
 10
750.92307699999992
 20
503.5
 30
0.0
 11
752.0
 21
503.5
 31
0.0
  0
LINE
  5
D06
  8
WAKU
  6
CONTINUOUS
 10
748.513463
 20
499.83846199999999
 30
0.0
 11
748.98382400000003
 21
501.13076899999999
 31
0.0
  0
LINE
  5
D07
  8
WAKU
  6
CONTINUOUS
 10
709.82864600000005
 20
497.10779099999991
 30
0.0
 11
709.96682399999986
 21
496.82952599999987
 31
0.0
  0
LINE
  5
D08
  8
WAKU
  6
CONTINUOUS
 10
709.96682399999986
 20
496.82952599999987
 30
0.0
 11
710.193309
 21
496.63466399999999
 31
0.0
  0
LINE
  5
D09
  8
WAKU
  6
CONTINUOUS
 10
710.193309
 20
496.63466399999999
 30
0.0
 11
710.49978199999998
 21
496.53036100000003
 31
0.0
  0
LINE
  5
D0A
  8
WAKU
  6
CONTINUOUS
 10
710.49978199999998
 20
496.53036100000003
 30
0.0
 11
710.87498700000003
 21
496.52044899999999
 31
0.0
  0
LINE
  5
D0B
  8
WAKU
  6
CONTINUOUS
 10
710.87498700000003
 20
496.52044899999999
 30
0.0
 11
711.30514200000005
 21
496.60529100000002
 31
0.0
  0
LINE
  5
D0C
  8
WAKU
  6
CONTINUOUS
 10
711.30514200000005
 20
496.60529100000002
 30
0.0
 11
711.77444799999989
 21
496.78177299999999
 31
0.0
  0
LINE
  5
D0D
  8
WAKU
  6
CONTINUOUS
 10
711.77444799999989
 20
496.78177299999999
 30
0.0
 11
712.26566600000001
 21
497.04341099999999
 31
0.0
  0
LINE
  5
D0E
  8
WAKU
  6
CONTINUOUS
 10
712.26566600000001
 20
497.04341099999999
 30
0.0
 11
712.76075600000001
 21
497.38059500000003
 31
0.0
  0
LINE
  5
D0F
  8
WAKU
  6
CONTINUOUS
 10
712.76075600000001
 20
497.38059500000003
 30
0.0
 11
713.24153199999989
 21
497.78094099999998
 31
0.0
  0
LINE
  5
D10
  8
WAKU
  6
CONTINUOUS
 10
713.24153199999989
 20
497.78094099999998
 30
0.0
 11
713.69033499999989
 21
498.22974399999998
 31
0.0
  0
LINE
  5
D11
  8
WAKU
  6
CONTINUOUS
 10
713.69033499999989
 20
498.22974399999998
 30
0.0
 11
714.09068099999979
 21
498.71051999999997
 31
0.0
  0
LINE
  5
D12
  8
WAKU
  6
CONTINUOUS
 10
714.09068099999979
 20
498.71051999999997
 30
0.0
 11
714.427865
 21
499.20560899999998
 31
0.0
  0
LINE
  5
D13
  8
WAKU
  6
CONTINUOUS
 10
714.427865
 20
499.20560899999998
 30
0.0
 11
714.68950299999995
 21
499.69682799999998
 31
0.0
  0
LINE
  5
D14
  8
WAKU
  6
CONTINUOUS
 10
714.68950299999995
 20
499.69682799999998
 30
0.0
 11
714.86598400000003
 21
500.166134
 31
0.0
  0
LINE
  5
D15
  8
WAKU
  6
CONTINUOUS
 10
714.86598400000003
 20
500.166134
 30
0.0
 11
714.950827
 21
500.5962889999999
 31
0.0
  0
LINE
  5
D16
  8
WAKU
  6
CONTINUOUS
 10
714.950827
 20
500.5962889999999
 30
0.0
 11
714.94091500000002
 21
500.9714929999999
 31
0.0
  0
LINE
  5
D17
  8
WAKU
  6
CONTINUOUS
 10
714.94091500000002
 20
500.9714929999999
 30
0.0
 11
714.83661199999995
 21
501.27796699999988
 31
0.0
  0
LINE
  5
D18
  8
WAKU
  6
CONTINUOUS
 10
714.83661199999995
 20
501.27796699999988
 30
0.0
 11
714.641749
 21
501.50445200000001
 31
0.0
  0
LINE
  5
D19
  8
WAKU
  6
CONTINUOUS
 10
714.641749
 20
501.50445200000001
 30
0.0
 11
714.36348399999986
 21
501.64263
 31
0.0
  0
LINE
  5
D1A
  8
WAKU
  6
CONTINUOUS
 10
713.91694099999995
 20
501.683944
 30
0.0
 11
713.48263599999996
 21
501.60801399999991
 31
0.0
  0
LINE
  5
D1B
  8
WAKU
  6
CONTINUOUS
 10
713.48263599999996
 20
501.60801399999991
 30
0.0
 11
713.00563899999997
 21
501.43576799999988
 31
0.0
  0
LINE
  5
D1C
  8
WAKU
  6
CONTINUOUS
 10
713.00563899999997
 20
501.43576799999988
 30
0.0
 11
712.50426900000002
 21
501.17382099999992
 31
0.0
  0
LINE
  5
D1D
  8
WAKU
  6
CONTINUOUS
 10
712.50426900000002
 20
501.17382099999992
 30
0.0
 11
711.99778300000003
 21
500.83223499999991
 31
0.0
  0
LINE
  5
D1E
  8
WAKU
  6
CONTINUOUS
 10
711.99778300000003
 20
500.83223499999991
 30
0.0
 11
711.50563199999988
 21
500.424128
 31
0.0
  0
LINE
  5
D1F
  8
WAKU
  6
CONTINUOUS
 10
711.50563199999988
 20
500.424128
 30
0.0
 11
711.04672000000005
 21
499.96517399999999
 31
0.0
  0
LINE
  5
D20
  8
WAKU
  6
CONTINUOUS
 10
711.04672000000005
 20
499.96517399999999
 30
0.0
 11
710.63867100000004
 21
499.47300000000001
 31
0.0
  0
LINE
  5
D21
  8
WAKU
  6
CONTINUOUS
 10
710.63867100000004
 20
499.47300000000001
 30
0.0
 11
710.29715599999997
 21
498.96650899999992
 31
0.0
  0
LINE
  5
D22
  8
WAKU
  6
CONTINUOUS
 10
710.29715599999997
 20
498.96650899999992
 30
0.0
 11
710.03529300000002
 21
498.46515399999993
 31
0.0
  0
LINE
  5
D23
  8
WAKU
  6
CONTINUOUS
 10
710.03529300000002
 20
498.46515399999993
 30
0.0
 11
709.86313899999993
 21
497.98818899999992
 31
0.0
  0
LINE
  5
D24
  8
WAKU
  6
CONTINUOUS
 10
709.86313899999993
 20
497.98818899999992
 30
0.0
 11
709.78730499999995
 21
497.55393500000002
 31
0.0
  0
LINE
  5
D25
  8
WAKU
  6
CONTINUOUS
 10
710.17291099999989
 20
497.45185599999991
 30
0.0
 11
710.68139500000007
 21
497.53919500000001
 31
0.0
  0
LINE
  5
D26
  8
WAKU
  6
CONTINUOUS
 10
710.68139500000007
 20
497.53919500000001
 30
0.0
 11
711.31226300000003
 21
497.81033200000002
 31
0.0
  0
LINE
  5
D27
  8
WAKU
  6
CONTINUOUS
 10
711.31226300000003
 20
497.81033200000002
 30
0.0
 11
711.98994000000005
 21
498.25143100000003
 31
0.0
  0
LINE
  5
D28
  8
WAKU
  6
CONTINUOUS
 10
711.98994000000005
 20
498.25143100000003
 30
0.0
 11
712.64629600000001
 21
498.8255059999999
 31
0.0
  0
LINE
  5
D29
  8
WAKU
  6
CONTINUOUS
 10
712.64629600000001
 20
498.8255059999999
 30
0.0
 11
713.22023799999988
 21
499.48192
 31
0.0
  0
LINE
  5
D2A
  8
WAKU
  6
CONTINUOUS
 10
713.22023799999988
 20
499.48192
 30
0.0
 11
713.66135299999996
 21
500.15953400000001
 31
0.0
  0
LINE
  5
D2B
  8
WAKU
  6
CONTINUOUS
 10
713.66135299999996
 20
500.15953400000001
 30
0.0
 11
713.93207099999995
 21
500.79040199999992
 31
0.0
  0
LINE
  5
D2C
  8
WAKU
  6
CONTINUOUS
 10
713.93207099999995
 20
500.79040199999992
 30
0.0
 11
714.01922899999988
 21
501.29856899999999
 31
0.0
  0
LINE
  5
D2D
  8
WAKU
  6
CONTINUOUS
 10
713.91694099999995
 20
501.683944
 30
0.0
 11
713.79914800000006
 21
501.78192899999999
 31
0.0
  0
LINE
  5
D2E
  8
WAKU
  6
CONTINUOUS
 10
713.79914800000006
 20
501.78192899999999
 30
0.0
 11
713.59799599999997
 21
501.84090199999991
 31
0.0
  0
LINE
  5
D2F
  8
WAKU
  6
CONTINUOUS
 10
713.59799599999997
 20
501.84090199999991
 30
0.0
 11
713.29085699999996
 21
501.83558099999988
 31
0.0
  0
LINE
  5
D30
  8
WAKU
  6
CONTINUOUS
 10
713.29085699999996
 20
501.83558099999988
 30
0.0
 11
712.89513999999997
 21
501.7400649999999
 31
0.0
  0
LINE
  5
D31
  8
WAKU
  6
CONTINUOUS
 10
712.89513999999997
 20
501.7400649999999
 30
0.0
 11
712.44023499999992
 21
501.54758499999991
 31
0.0
  0
LINE
  5
D32
  8
WAKU
  6
CONTINUOUS
 10
712.44023499999992
 20
501.54758499999991
 30
0.0
 11
711.95458699999995
 21
501.26428399999992
 31
0.0
  0
LINE
  5
D33
  8
WAKU
  6
CONTINUOUS
 10
711.95458699999995
 20
501.26428399999992
 30
0.0
 11
710.99609800000007
 21
500.47510799999998
 31
0.0
  0
LINE
  5
D34
  8
WAKU
  6
CONTINUOUS
 10
710.99609800000007
 20
500.47510799999998
 30
0.0
 11
710.20703499999991
 21
499.51657
 31
0.0
  0
LINE
  5
D35
  8
WAKU
  6
CONTINUOUS
 10
710.20703499999991
 20
499.51657
 30
0.0
 11
709.92351900000006
 21
499.03102799999999
 31
0.0
  0
LINE
  5
D36
  8
WAKU
  6
CONTINUOUS
 10
709.92351900000006
 20
499.03102799999999
 30
0.0
 11
709.73149000000001
 21
498.57602099999991
 31
0.0
  0
LINE
  5
D37
  8
WAKU
  6
CONTINUOUS
 10
709.73149000000001
 20
498.57602099999991
 30
0.0
 11
709.63569600000005
 21
498.18040400000001
 31
0.0
  0
LINE
  5
D38
  8
WAKU
  6
CONTINUOUS
 10
709.63569600000005
 20
498.18040400000001
 30
0.0
 11
709.63035799999989
 21
497.87308699999988
 31
0.0
  0
LINE
  5
D39
  8
WAKU
  6
CONTINUOUS
 10
709.63035799999989
 20
497.87308699999988
 30
0.0
 11
709.68915500000003
 21
497.67243499999989
 31
0.0
  0
LINE
  5
D3A
  8
WAKU
  6
CONTINUOUS
 10
709.68915500000003
 20
497.67243499999989
 30
0.0
 11
709.78730499999995
 21
497.55393500000002
 31
0.0
  0
LINE
  5
D3B
  8
WAKU
  6
CONTINUOUS
 10
710.27517699999999
 20
497.06647600000002
 30
0.0
 11
710.39292699999999
 21
496.96856799999989
 31
0.0
  0
LINE
  5
D3C
  8
WAKU
  6
CONTINUOUS
 10
710.39292699999999
 20
496.96856799999989
 30
0.0
 11
710.59417699999995
 21
496.90949799999999
 31
0.0
  0
LINE
  5
D3D
  8
WAKU
  6
CONTINUOUS
 10
710.59417699999995
 20
496.90949799999999
 30
0.0
 11
710.90129400000001
 21
496.91486299999991
 31
0.0
  0
LINE
  5
D3E
  8
WAKU
  6
CONTINUOUS
 10
710.90129400000001
 20
496.91486299999991
 30
0.0
 11
711.29698399999995
 21
497.01036800000003
 31
0.0
  0
LINE
  5
D3F
  8
WAKU
  6
CONTINUOUS
 10
711.29698399999995
 20
497.01036800000003
 30
0.0
 11
711.75188200000002
 21
497.20279799999997
 31
0.0
  0
LINE
  5
D40
  8
WAKU
  6
CONTINUOUS
 10
711.75188200000002
 20
497.20279799999997
 30
0.0
 11
712.23749699999996
 21
497.48611699999992
 31
0.0
  0
LINE
  5
D41
  8
WAKU
  6
CONTINUOUS
 10
712.23749699999996
 20
497.48611699999992
 30
0.0
 11
713.19596499999989
 21
498.27523200000002
 31
0.0
  0
LINE
  5
D42
  8
WAKU
  6
CONTINUOUS
 10
713.19596499999989
 20
498.27523200000002
 30
0.0
 11
713.98505
 21
499.2337179999999
 31
0.0
  0
LINE
  5
D43
  8
WAKU
  6
CONTINUOUS
 10
713.98505
 20
499.2337179999999
 30
0.0
 11
714.26850699999989
 21
499.71927799999997
 31
0.0
  0
LINE
  5
D44
  8
WAKU
  6
CONTINUOUS
 10
714.26850699999989
 20
499.71927799999997
 30
0.0
 11
714.46070999999995
 21
500.17424799999998
 31
0.0
  0
LINE
  5
D45
  8
WAKU
  6
CONTINUOUS
 10
714.46070999999995
 20
500.17424799999998
 30
0.0
 11
714.55636100000004
 21
500.56986399999988
 31
0.0
  0
LINE
  5
D46
  8
WAKU
  6
CONTINUOUS
 10
714.55636100000004
 20
500.56986399999988
 30
0.0
 11
714.56180199999994
 21
500.877253
 31
0.0
  0
LINE
  5
D47
  8
WAKU
  6
CONTINUOUS
 10
714.56180199999994
 20
500.877253
 30
0.0
 11
714.50295099999994
 21
501.0779179999999
 31
0.0
  0
LINE
  5
D48
  8
WAKU
  6
CONTINUOUS
 10
714.50295099999994
 20
501.0779179999999
 30
0.0
 11
714.40481
 21
501.19624900000002
 31
0.0
  0
LINE
  5
D49
  8
WAKU
  6
CONTINUOUS
 10
714.01922899999988
 20
501.29856899999999
 30
0.0
 11
713.51073799999995
 21
501.21123999999998
 31
0.0
  0
LINE
  5
D4A
  8
WAKU
  6
CONTINUOUS
 10
713.51073799999995
 20
501.21123999999998
 30
0.0
 11
712.87987800000008
 21
500.94005700000002
 31
0.0
  0
LINE
  5
D4B
  8
WAKU
  6
CONTINUOUS
 10
712.87987800000008
 20
500.94005700000002
 30
0.0
 11
712.20218099999988
 21
500.49899099999988
 31
0.0
  0
LINE
  5
D4C
  8
WAKU
  6
CONTINUOUS
 10
712.20218099999988
 20
500.49899099999988
 30
0.0
 11
711.54582699999992
 21
499.924893
 31
0.0
  0
LINE
  5
D4D
  8
WAKU
  6
CONTINUOUS
 10
711.54582699999992
 20
499.924893
 30
0.0
 11
710.97189600000002
 21
499.26847099999992
 31
0.0
  0
LINE
  5
D4E
  8
WAKU
  6
CONTINUOUS
 10
710.97189600000002
 20
499.26847099999992
 30
0.0
 11
710.53071199999988
 21
498.59087499999998
 31
0.0
  0
LINE
  5
D4F
  8
WAKU
  6
CONTINUOUS
 10
710.53071199999988
 20
498.59087499999998
 30
0.0
 11
710.26016800000002
 21
497.959969
 31
0.0
  0
LINE
  5
D50
  8
WAKU
  6
CONTINUOUS
 10
710.26016800000002
 20
497.959969
 30
0.0
 11
710.17291099999989
 21
497.45185599999991
 31
0.0
  0
LINE
  5
D51
  8
WAKU
  6
CONTINUOUS
 10
710.27517699999999
 20
497.06647600000002
 30
0.0
 11
710.70945800000004
 21
497.14239700000002
 31
0.0
  0
LINE
  5
D52
  8
WAKU
  6
CONTINUOUS
 10
710.70945800000004
 20
497.14239700000002
 30
0.0
 11
711.18642799999986
 21
497.31462499999998
 31
0.0
  0
LINE
  5
D53
  8
WAKU
  6
CONTINUOUS
 10
711.18642799999986
 20
497.31462499999998
 30
0.0
 11
711.68776999999989
 21
497.5765449999999
 31
0.0
  0
LINE
  5
D54
  8
WAKU
  6
CONTINUOUS
 10
711.68776999999989
 20
497.5765449999999
 30
0.0
 11
712.19423200000006
 21
497.91809899999998
 31
0.0
  0
LINE
  5
D55
  8
WAKU
  6
CONTINUOUS
 10
712.19423200000006
 20
497.91809899999998
 30
0.0
 11
712.68636300000003
 21
498.32617099999987
 31
0.0
  0
LINE
  5
D56
  8
WAKU
  6
CONTINUOUS
 10
712.68636300000003
 20
498.32617099999987
 30
0.0
 11
713.14526599999988
 21
498.78508899999991
 31
0.0
  0
LINE
  5
D57
  8
WAKU
  6
CONTINUOUS
 10
713.14526599999988
 20
498.78508899999991
 30
0.0
 11
713.553316
 21
499.27722899999992
 31
0.0
  0
LINE
  5
D58
  8
WAKU
  6
CONTINUOUS
 10
713.553316
 20
499.27722899999992
 30
0.0
 11
713.89484299999992
 21
499.78369300000003
 31
0.0
  0
LINE
  5
D59
  8
WAKU
  6
CONTINUOUS
 10
713.89484299999992
 20
499.78369300000003
 30
0.0
 11
714.15673200000003
 21
500.28503000000001
 31
0.0
  0
LINE
  5
D5A
  8
WAKU
  6
CONTINUOUS
 10
714.15673200000003
 20
500.28503000000001
 30
0.0
 11
714.32892500000003
 21
500.76198699999998
 31
0.0
  0
LINE
  5
D5B
  8
WAKU
  6
CONTINUOUS
 10
714.32892500000003
 20
500.76198699999998
 30
0.0
 11
714.40481
 21
501.19624900000002
 31
0.0
  0
LINE
  5
D5C
  8
WAKU
  6
CONTINUOUS
 10
714.36348399999986
 20
501.64263
 30
0.0
 11
714.22530599999993
 21
501.92089499999997
 31
0.0
  0
LINE
  5
D5D
  8
WAKU
  6
CONTINUOUS
 10
714.22530599999993
 20
501.92089499999997
 30
0.0
 11
713.99882100000002
 21
502.11575699999997
 31
0.0
  0
LINE
  5
D5E
  8
WAKU
  6
CONTINUOUS
 10
713.99882100000002
 20
502.11575699999997
 30
0.0
 11
713.69234800000004
 21
502.22005999999988
 31
0.0
  0
LINE
  5
D5F
  8
WAKU
  6
CONTINUOUS
 10
713.69234800000004
 20
502.22005999999988
 30
0.0
 11
713.31714299999987
 21
502.22997199999992
 31
0.0
  0
LINE
  5
D60
  8
WAKU
  6
CONTINUOUS
 10
713.31714299999987
 20
502.22997199999992
 30
0.0
 11
712.88698799999986
 21
502.14512899999988
 31
0.0
  0
LINE
  5
D61
  8
WAKU
  6
CONTINUOUS
 10
712.88698799999986
 20
502.14512899999988
 30
0.0
 11
712.41768300000001
 21
501.96864799999997
 31
0.0
  0
LINE
  5
D62
  8
WAKU
  6
CONTINUOUS
 10
712.41768300000001
 20
501.96864799999997
 30
0.0
 11
711.9264639999999
 21
501.70700999999991
 31
0.0
  0
LINE
  5
D63
  8
WAKU
  6
CONTINUOUS
 10
711.9264639999999
 20
501.70700999999991
 30
0.0
 11
711.43137400000001
 21
501.36982599999988
 31
0.0
  0
LINE
  5
D64
  8
WAKU
  6
CONTINUOUS
 10
711.43137400000001
 20
501.36982599999988
 30
0.0
 11
710.95059900000001
 21
500.96947999999998
 31
0.0
  0
LINE
  5
D65
  8
WAKU
  6
CONTINUOUS
 10
710.95059900000001
 20
500.96947999999998
 30
0.0
 11
710.50179500000002
 21
500.52067699999998
 31
0.0
  0
LINE
  5
D66
  8
WAKU
  6
CONTINUOUS
 10
710.50179500000002
 20
500.52067699999998
 30
0.0
 11
710.10144899999989
 21
500.03990099999987
 31
0.0
  0
LINE
  5
D67
  8
WAKU
  6
CONTINUOUS
 10
710.10144899999989
 20
500.03990099999987
 30
0.0
 11
709.76426500000002
 21
499.54481199999998
 31
0.0
  0
LINE
  5
D68
  8
WAKU
  6
CONTINUOUS
 10
709.76426500000002
 20
499.54481199999998
 30
0.0
 11
709.50262699999985
 21
499.05359299999998
 31
0.0
  0
LINE
  5
D69
  8
WAKU
  6
CONTINUOUS
 10
709.50262699999985
 20
499.05359299999998
 30
0.0
 11
709.32614599999988
 21
498.5842869999999
 31
0.0
  0
LINE
  5
D6A
  8
WAKU
  6
CONTINUOUS
 10
709.32614599999988
 20
498.5842869999999
 30
0.0
 11
709.24130300000002
 21
498.15413199999989
 31
0.0
  0
LINE
  5
D6B
  8
WAKU
  6
CONTINUOUS
 10
709.24130300000002
 20
498.15413199999989
 30
0.0
 11
709.251215
 21
497.77892800000001
 31
0.0
  0
LINE
  5
D6C
  8
WAKU
  6
CONTINUOUS
 10
709.251215
 20
497.77892800000001
 30
0.0
 11
709.35551799999996
 21
497.47245400000003
 31
0.0
  0
LINE
  5
D6D
  8
WAKU
  6
CONTINUOUS
 10
709.35551799999996
 20
497.47245400000003
 30
0.0
 11
709.55038100000002
 21
497.245969
 31
0.0
  0
LINE
  5
D6E
  8
WAKU
  6
CONTINUOUS
 10
709.55038100000002
 20
497.245969
 30
0.0
 11
709.82864600000005
 21
497.10779099999991
 31
0.0
  0
INSERT
  5
D6F
  8
WAKU
  6
CONTINUOUS
  2
*U0
 10
340.0
 20
213.0
 30
0.0
1001
ACAD
1002
{
1000
R14_HATCH_DATA
1000
D6F
1011
341.0
1021
8.2275227924726147E+062
1031
-0.0
1021
213.0
1031
0.0
1011
340.0
1021
8.2275227924726147E+062
1031
-0.0
1021
214.0
1031
0.0
1011
340.0
1021
8.2275227924726147E+062
1031
-0.0
1021
213.0
1031
1.0
1040
0.0
1010
0.0
1020
0.0
1030
1.0
1000
SOLID
1070
     1
1070
     1
1071
       15
1071
        7
1070
     0
1070
     1
1071
        3
1040
372.24905299999989
1040
290.5
1040
367.97127599999999
1040
290.5
1040
367.97127599999999
1040
286.22222199999999
1071
        3
1005
CC0
1005
CC2
1005
CC1
1071
        7
1070
     0
1070
     1
1071
       38
1040
373.99882100000002
1040
289.11575699999992
1040
373.69234799999992
1040
289.22005999999988
1040
373.31714299999999
1040
289.22997199999998
1040
372.88698799999992
1040
289.145129
1040
372.41768300000001
1040
288.96864799999992
1040
371.92646400000001
1040
288.70701000000003
1040
371.43137400000001
1040
288.36982599999999
1040
370.95059900000001
1040
287.96947999999992
1040
370.50179500000002
1040
287.52067699999992
1040
370.10144899999989
1040
287.03990099999987
1040
369.76426499999991
1040
286.54481199999998
1040
369.50262700000002
1040
286.05359299999998
1040
369.32614599999988
1040
285.58428700000002
1040
369.2413029999999
1040
285.15413199999989
1040
369.251215
1040
284.77892800000001
1040
369.35551800000002
1040
284.47245400000003
1040
369.55038100000002
1040
284.245969
1040
369.82864599999988
1040
284.10779100000002
1040
369.96682399999997
1040
283.82952599999987
1040
370.193309
1040
283.63466399999999
1040
370.49978199999993
1040
283.53036100000003
1040
370.87498699999998
1040
283.52044899999999
1040
371.30514199999988
1040
283.60529100000002
1040
371.77444800000001
1040
283.78177299999987
1040
372.26566600000001
1040
284.04341099999988
1040
372.76075600000001
1040
284.38059500000003
1040
373.24153200000001
1040
284.78094099999998
1040
373.69033499999989
1040
285.22974399999998
1040
374.09068100000002
1040
285.71051999999997
1040
374.427865
1040
286.20560899999992
1040
374.689503
1040
286.69682799999998
1040
374.86598399999991
1040
287.166134
1040
374.950827
1040
287.59628900000001
1040
374.94091500000002
1040
287.97149300000001
1040
374.836612
1040
288.27796699999999
1040
374.641749
1040
288.50445200000001
1040
374.36348399999991
1040
288.64263
1040
374.22530599999988
1040
288.92089499999997
1071
       38
1005
D5D
1005
D5E
1005
D5F
1005
D60
1005
D61
1005
D62
1005
D63
1005
D64
1005
D65
1005
D66
1005
D67
1005
D68
1005
D69
1005
D6A
1005
D6B
1005
D6C
1005
D6D
1005
D6E
1005
D07
1005
D08
1005
D09
1005
D0A
1005
D0B
1005
D0C
1005
D0D
1005
D0E
1005
D0F
1005
D10
1005
D11
1005
D12
1005
D13
1005
D14
1005
D15
1005
D16
1005
D17
1005
D18
1005
D19
1005
D5C
1071
       22
1070
     0
1070
     1
1071
       25
1040
373.799148
1040
288.78192899999988
1040
373.91694100000001
1040
288.683944
1040
373.48263600000001
1040
288.60801400000003
1040
373.00563899999997
1040
288.43576799999988
1040
372.50426900000002
1040
288.17382099999992
1040
371.99778300000003
1040
287.83223500000003
1040
371.50563199999988
1040
287.424128
1040
371.04671999999999
1040
286.96517399999999
1040
370.63867099999987
1040
286.47300000000001
1040
370.29715599999997
1040
285.96650899999992
1040
370.03529300000002
1040
285.46515399999993
1040
369.86313899999999
1040
284.98818899999998
1040
369.787305
1040
284.55393500000002
1040
369.68915499999991
1040
284.67243500000001
1040
369.63035799999989
1040
284.873087
1040
369.635696
1040
285.18040400000001
1040
369.73149000000001
1040
285.57602099999991
1040
369.923519
1040
286.03102799999988
1040
370.20703500000002
1040
286.51657
1040
370.99609800000002
1040
287.47510799999998
1040
371.954587
1040
288.26428399999992
1040
372.44023499999997
1040
288.54758500000003
1040
372.89513999999991
1040
288.74006500000002
1040
373.2908569999999
1040
288.83558099999988
1040
373.59799600000002
1040
288.84090200000003
1071
       25
1005
D2D
1005
D1A
1005
D1B
1005
D1C
1005
D1D
1005
D1E
1005
D1F
1005
D20
1005
D21
1005
D22
1005
D23
1005
D24
1005
D3A
1005
D39
1005
D38
1005
D37
1005
D36
1005
D35
1005
D34
1005
D33
1005
D32
1005
D31
1005
D30
1005
D2F
1005
D2E
1071
       22
1070
     0
1070
     1
1071
       16
1040
374.01922899999988
1040
288.29856899999987
1040
373.93207100000001
1040
287.79040199999997
1040
373.66135299999991
1040
287.15953400000001
1040
373.22023799999988
1040
286.48191999999989
1040
372.64629600000001
1040
285.82550600000002
1040
371.98993999999999
1040
285.25143100000003
1040
371.31226299999992
1040
284.8103319999999
1040
370.68139500000001
1040
284.53919500000001
1040
370.172911
1040
284.45185600000002
1040
370.26016800000002
1040
284.959969
1040
370.53071199999999
1040
285.59087499999993
1040
370.97189600000002
1040
286.26847099999992
1040
371.54582699999992
1040
286.92489299999988
1040
372.202181
1040
287.49899099999999
1040
372.87987799999991
1040
287.94005699999991
1040
373.510738
1040
288.21123999999998
1071
       16
1005
D2C
1005
D2B
1005
D2A
1005
D29
1005
D28
1005
D27
1005
D26
1005
D25
1005
D50
1005
D4F
1005
D4E
1005
D4D
1005
D4C
1005
D4B
1005
D4A
1005
D49
1071
       22
1070
     0
1070
     1
1071
       25
1040
374.40481
1040
288.19624900000002
1040
374.502951
1040
288.07791800000001
1040
374.561802
1040
287.87725299999988
1040
374.55636099999998
1040
287.56986399999988
1040
374.46071000000001
1040
287.17424799999992
1040
374.268507
1040
286.71927799999992
1040
373.98505
1040
286.23371800000001
1040
373.195965
1040
285.2752319999999
1040
372.23749700000002
1040
284.48611699999992
1040
371.75188199999991
1040
284.20279799999992
1040
371.2969839999999
1040
284.01036800000003
1040
370.90129400000001
1040
283.91486300000003
1040
370.59417699999989
1040
283.90949799999999
1040
370.39292699999987
1040
283.968568
1040
370.27517699999993
1040
284.06647599999991
1040
370.70945799999993
1040
284.14239700000002
1040
371.18642799999992
1040
284.31462499999992
1040
371.68776999999989
1040
284.57654500000001
1040
372.194232
1040
284.91809899999998
1040
372.68636299999991
1040
285.32617099999987
1040
373.14526599999988
1040
285.78508900000003
1040
373.553316
1040
286.27722899999992
1040
373.89484299999998
1040
286.78369300000003
1040
374.15673199999992
1040
287.28502999999989
1040
374.32892500000003
1040
287.76198699999998
1071
       25
1005
D48
1005
D47
1005
D46
1005
D45
1005
D44
1005
D43
1005
D42
1005
D41
1005
D40
1005
D3F
1005
D3E
1005
D3D
1005
D3C
1005
D3B
1005
D51
1005
D52
1005
D53
1005
D54
1005
D55
1005
D56
1005
D57
1005
D58
1005
D59
1005
D5A
1005
D5B
1071
        7
1070
     0
1070
     1
1071
       14
1040
378.72307699999988
1040
290.5
1040
378.0959279999999
1040
288.7769229999999
1040
380.31131299999993
1040
288.7769229999999
1040
377.15520499999991
1040
286.19230800000003
1040
376.17528499999997
1040
283.49999999999989
1040
379.39714500000002
1040
286.13846199999989
1040
378.436824
1040
283.49999999999989
1040
379.51374700000002
1040
283.49999999999989
1040
380.49366700000002
1040
286.19230800000003
1040
381.775285
1040
283.49999999999989
1040
382.75520499999988
1040
286.19230800000003
1040
381.5248509999999
1040
288.7769229999999
1040
383.69592799999992
1040
288.7769229999999
1040
384.32307700000001
1040
290.5
1071
       14
1005
CC4
1005
CCF
1005
CCE
1005
CC5
1005
CC7
1005
CC8
1005
CCD
1005
CCC
1005
CCB
1005
CCA
1005
CC9
1005
CC6
1005
CC3
1005
CDC
1071
        7
1070
     0
1070
     1
1071
        4
1040
385.615385
1040
290.5
1040
384.98823599999992
1040
288.7769229999999
1040
390.37285099999991
1040
288.7769229999999
1040
391.0
1040
290.5
1071
        4
1005
CDA
1005
CDB
1005
CD9
1005
CE3
1071
        7
1070
     0
1070
     1
1071
        4
1040
388.45220799999993
1040
283.49999999999989
1040
389.23614399999991
1040
285.65384599999987
1040
383.85152900000003
1040
285.65384599999987
1040
383.06759299999999
1040
283.49999999999989
1071
        4
1005
CD3
1005
CD4
1005
CD5
1005
CD2
1071
        7
1070
     0
1070
     1
1071
       22
1040
395.45220799999993
1040
283.49999999999989
1040
396.941687
1040
287.592308
1040
397.74937899999998
1040
287.592308
1040
398.33733100000001
1040
289.20769200000001
1040
397.52963799999992
1040
289.20769200000001
1040
398.0
1040
290.5
1040
396.92307699999992
1040
290.5
1040
396.45271500000001
1040
289.20769200000001
1040
393.76040799999993
1040
289.20769200000001
1040
394.23076900000001
1040
290.5
1040
393.15384599999999
1040
290.5
1040
392.68348500000002
1040
289.20769200000001
1040
391.87579199999999
1040
289.20769200000001
1040
391.28784000000002
1040
287.592308
1040
392.09553299999988
1040
287.592308
1040
391.70356499999991
1040
286.51538499999998
1040
392.78048799999999
1040
286.51538499999998
1040
393.17245600000001
1040
287.592308
1040
395.86476299999993
1040
287.592308
1040
395.159221
1040
285.65384599999987
1040
391.17460599999998
1040
285.65384599999987
1040
390.39067
1040
283.49999999999989
1071
       22
1005
CFB
1005
CFC
1005
CFA
1005
CF9
1005
CF8
1005
CFE
1005
CBC
1005
CDE
1005
CDD
1005
CE2
1005
CDF
1005
CE1
1005
CE0
1005
CD1
1005
CD7
1005
CD0
1005
CBD
1005
CBF
1005
CD6
1005
CD8
1005
CBE
1005
CF0
1071
        7
1070
     0
1070
     1
1071
        6
1040
398.19400599999989
1040
285.115385
1040
397.60605499999991
1040
283.49999999999989
1040
401.913747
1040
283.49999999999989
1040
403.87358699999999
1040
288.884615
1040
402.79666299999991
1040
288.884615
1040
401.42477599999989
1040
285.115385
1071
        6
1005
D01
1005
CEF
1005
CF3
1005
CF4
1005
CF1
1005
CEE
1071
       23
1070
     0
1070
     1
1071
        4
1040
402.04281700000001
1040
288.884615
1040
400.96589399999988
1040
288.884615
1040
400.18195800000001
1040
286.73076900000001
1040
401.25888099999997
1040
286.73076900000001
1071
        4
1005
CF7
1005
CEB
1005
CF5
1005
CED
1071
       23
1070
     0
1070
     1
1071
        4
1040
400.64281699999992
1040
288.884615
1040
399.56589400000001
1040
288.884615
1040
398.78195799999997
1040
286.73076900000001
1040
399.858881
1040
286.73076900000001
1071
        4
1005
CFD
1005
CEA
1005
CF2
1005
CEC
1071
       23
1070
     0
1070
     1
1071
        4
1040
406.615385
1040
290.5
1040
405.98823599999992
1040
288.7769229999999
1040
409.21900499999998
1040
288.7769229999999
1040
409.84615400000001
1040
290.5
1071
        4
1005
CE9
1005
CFF
1005
CE8
1005
D04
1071
       23
1070
     0
1070
     1
1071
        4
1040
405.75305500000002
1040
288.13076899999987
1040
405.28269399999999
1040
286.83846199999999
1040
408.51346299999989
1040
286.83846199999999
1040
408.98382400000003
1040
288.13076899999987
1071
        4
1005
CE4
1005
D00
1005
CE5
1005
D06
1071
        7
1070
     0
1070
     1
1071
        6
1040
409.45220799999993
1040
283.49999999999989
1040
412.0
1040
290.5
1040
410.92307699999992
1040
290.5
1040
409.15922099999989
1040
285.65384599999987
1040
404.85152900000003
1040
285.65384599999987
1040
404.06759299999999
1040
283.49999999999989
1071
        6
1005
D05
1005
D02
1005
CE7
1005
CF6
1005
CE6
1005
D03
1070
     0
1070
     1
1040
0.054099
1071
       15
1040
371.24837300000002
1040
289.88140899999991
1040
0.0
1040
373.90111799999988
1040
288.90763299999998
1040
0.0
1040
373.90111799999988
1040
288.90763299999998
1040
0.0
1040
373.90111799999988
1040
288.90763299999998
1040
0.0
1040
373.90111799999988
1040
288.90763299999998
1040
0.0
1040
380.34350000000001
1040
289.82731000000001
1040
0.0
1040
388.24759699999998
1040
289.66501399999993
1040
0.0
1040
386.51519200000001
1040
284.14694900000001
1040
0.0
1040
392.57860899999991
1040
284.25514599999991
1040
0.0
1040
400.53684500000003
1040
284.30924499999998
1040
0.0
1040
401.02408299999991
1040
287.55516599999999
1040
0.0
1040
399.72478000000001
1040
287.60926399999988
1040
0.0
1040
407.35818899999998
1040
289.98960599999992
1040
0.0
1040
407.141639
1040
287.50106699999992
1040
0.0
1040
407.19577600000002
1040
284.471541
1040
0.0
1002
}
  0
LINE
  5
74A8
  8
WAKU
 10
5.0
 20
505.0
 30
0.0
 11
755.0
 21
505.0
 31
0.0
  0
LINE
  5
9665
  8
DANMEN
  6
CONTINUOUS
 10
386.984217
 20
268.80054399999989
 30
0.0
 11
357.984217
 21
268.80054399999989
 31
0.0
  0
LINE
  5
9666
  8
DANMEN
  6
CONTINUOUS
 10
386.984217
 20
168.80054399999989
 30
0.0
 11
357.984217
 21
168.80054399999989
 31
0.0
  0
LINE
  5
9667
  8
DANMEN
  6
CONTINUOUS
 10
303.915322
 20
259.03523999999987
 30
0.0
 11
303.915322
 21
146.5352399999999
 31
0.0
  0
LINE
  5
9668
  8
DANMEN
  6
CONTINUOUS
 10
302.2653279999999
 20
259.03523999999987
 30
0.0
 11
302.2653279999999
 21
216.5352399999999
 31
0.0
  0
LINE
  5
9669
  8
DANMEN
  6
CONTINUOUS
 10
299.915322
 20
259.03523999999987
 30
0.0
 11
299.915322
 21
216.5352399999999
 31
0.0
  0
LINE
  5
966A
  8
DANMEN
  6
CONTINUOUS
 10
205.56531599999991
 20
259.03523999999987
 30
0.0
 11
205.56531599999991
 21
158.5352399999999
 31
0.0
  0
LINE
  5
966B
  8
DANMEN
  6
CONTINUOUS
 10
203.915322
 20
259.03523999999987
 30
0.0
 11
203.915322
 21
160.06507999999991
 31
0.0
  0
LINE
  5
966C
  8
DANMEN
  6
CONTINUOUS
 10
370.484217
 20
267.15054399999991
 30
0.0
 11
370.484217
 21
216.80054399999989
 31
0.0
  0
LINE
  5
966D
  8
DANMEN
  6
CONTINUOUS
 10
359.13421699999992
 20
267.15054399999991
 30
0.0
 11
359.13421699999992
 21
213.800544
 31
0.0
  0
LINE
  5
966E
  8
DANMEN
  6
CONTINUOUS
 10
357.484217
 20
268.300544
 30
0.0
 11
357.484217
 21
213.800544
 31
0.0
  0
LINE
  5
966F
  8
DANMEN
  6
CONTINUOUS
 10
212.56532200000001
 20
158.18523400000001
 30
0.0
 11
258.915322
 21
158.18523400000001
 31
0.0
  0
LINE
  5
9670
  8
DANMEN
  6
CONTINUOUS
 10
204.415322
 20
156.5352399999999
 30
0.0
 11
258.915322
 21
156.5352399999999
 31
0.0
  0
LINE
  5
9671
  8
DANMEN
  6
CONTINUOUS
 10
251.11143799999991
 20
173.87446299999999
 30
0.0
 11
239.415322
 21
171.5352399999999
 31
0.0
  0
LINE
  5
9672
  8
DANMEN
  6
CONTINUOUS
 10
243.31600499999999
 20
170.63269999999989
 30
0.0
 11
239.67580099999989
 21
169.90465900000001
 31
0.0
  0
LINE
  5
9673
  8
DANMEN
  6
CONTINUOUS
 10
204.317543
 20
156.5352399999999
 30
0.0
 11
211.415322
 21
156.5352399999999
 31
0.0
  0
LINE
  5
9674
  8
DANMEN
  6
CONTINUOUS
 10
205.01532199999991
 20
158.5352399999999
 30
0.0
 11
210.915322
 21
158.5352399999999
 31
0.0
  0
LINE
  5
9676
  8
DANMEN
  6
CONTINUOUS
 10
200.91532199999989
 20
160.64425700000001
 30
0.0
 11
200.91532199999989
 21
165.93523999999991
 31
0.0
  0
LINE
  5
9677
  8
DANMEN
  6
CONTINUOUS
 10
202.11532199999991
 20
160.96507700000001
 30
0.0
 11
202.11532199999991
 21
165.93523999999991
 31
0.0
  0
LINE
  5
9678
  8
DANMEN
  6
CONTINUOUS
 10
201.1917149999999
 20
160.19704299999989
 30
0.0
 11
203.915322
 21
158.83523999999991
 31
0.0
  0
LINE
  5
9679
  8
DANMEN
  6
CONTINUOUS
 10
202.11532199999991
 20
160.96507700000001
 30
0.0
 11
204.73892900000001
 21
159.65327400000001
 31
0.0
  0
ARC
  5
967A
  8
DANMEN
  6
CONTINUOUS
 10
201.41532199999989
 20
160.64425700000001
 30
0.0
 40
0.5
 50
180.0
 51
243.43494899999999
  0
LINE
  5
967D
  8
DANMEN
  6
CONTINUOUS
 10
203.915322
 20
157.0352399999999
 30
0.0
 11
203.915322
 21
158.83523999999991
 31
0.0
  0
LINE
  5
967F
  8
DANMEN
  6
CONTINUOUS
 10
205.01532199999991
 20
158.5352399999999
 30
0.0
 11
205.01532199999991
 21
159.20606000000001
 31
0.0
  0
ARC
  5
9680
  8
DANMEN
  6
CONTINUOUS
 10
204.51532199999991
 20
159.20606000000001
 30
0.0
 40
0.5
 50
0.0
 51
63.434949000000003
  0
ARC
  5
9683
  8
DANMEN
  6
CONTINUOUS
 10
204.415322
 20
157.0352399999999
 30
0.0
 40
0.5
 50
180.0
 51
270.0
  0
ARC
  5
9687
  8
DANMEN
  6
CONTINUOUS
 10
201.515322
 20
165.93523999999991
 30
0.0
 40
0.6
 50
0.0
 51
180.0
  0
LINE
  5
9688
  8
DANMEN
  6
CONTINUOUS
 10
222.61532199999999
 20
167.589179
 30
0.0
 11
222.61532199999999
 21
168.83524
 31
0.0
  0
LINE
  5
9689
  8
DANMEN
  6
CONTINUOUS
 10
220.915322
 20
165.5352399999999
 30
0.0
 11
220.915322
 21
171.0352399999999
 31
0.0
  0
LINE
  5
968A
  8
DANMEN
  6
CONTINUOUS
 10
227.71532199999999
 20
167.50493399999999
 30
0.0
 11
227.71532199999999
 21
168.88524599999991
 31
0.0
  0
LINE
  5
968B
  8
DANMEN
  6
CONTINUOUS
 10
226.21532199999999
 20
167.589179
 30
0.0
 11
226.21532199999999
 21
168.83524
 31
0.0
  0
LINE
  5
968C
  8
DANMEN
  6
CONTINUOUS
 10
212.56532200000001
 20
163.8852399999999
 30
0.0
 11
221.06532200000001
 21
163.8852399999999
 31
0.0
  0
LINE
  5
968D
  8
DANMEN
  6
CONTINUOUS
 10
211.915322
 20
165.5352399999999
 30
0.0
 11
220.915322
 21
165.5352399999999
 31
0.0
  0
LINE
  5
968E
  8
DANMEN
  6
CONTINUOUS
 10
210.915322
 20
158.5352399999999
 30
0.0
 11
210.915322
 21
164.5352399999999
 31
0.0
  0
LINE
  5
968F
  8
DANMEN
  6
CONTINUOUS
 10
212.56532200000001
 20
158.18523999999999
 30
0.0
 11
212.56532200000001
 21
163.8852399999999
 31
0.0
  0
ARC
  5
9692
  8
DANMEN
  6
CONTINUOUS
 10
211.915322
 20
164.5352399999999
 30
0.0
 40
1.0
 50
90.0
 51
180.0
  0
LINE
  5
9696
  8
DANMEN
  6
CONTINUOUS
 10
222.56532200000001
 20
165.3852399999999
 30
0.0
 11
222.56532200000001
 21
165.93523999999991
 31
0.0
  0
ARC
  5
9697
  8
DANMEN
  6
CONTINUOUS
 10
223.11532199999999
 20
166.49830800000001
 30
0.0
 40
0.2
 50
0.0
 51
65.375681999999983
  0
ARC
  5
9698
  8
DANMEN
  6
CONTINUOUS
 10
223.61532199999999
 20
167.589179
 30
0.0
 40
1.0
 50
180.0
 51
245.3756819999999
  0
LINE
  5
9699
  8
DANMEN
  6
CONTINUOUS
 10
223.31532200000001
 20
166.23524
 30
0.0
 11
223.31532200000001
 21
166.49830800000001
 31
0.0
  0
LINE
  5
969A
  8
DANMEN
  6
CONTINUOUS
 10
222.56532200000001
 20
165.93523999999991
 30
0.0
 11
223.015322
 21
165.93523999999991
 31
0.0
  0
ARC
  5
969B
  8
DANMEN
  6
CONTINUOUS
 10
223.015322
 20
166.23524
 30
0.0
 40
0.3
 50
270.0
 51
0.0
  0
ARC
  5
969D
  8
DANMEN
  6
CONTINUOUS
 10
221.06532200000001
 20
165.3852399999999
 30
0.0
 40
1.5
 50
270.0
 51
0.0
  0
ARC
  5
969F
  8
DANMEN
  6
CONTINUOUS
 10
225.71532199999999
 20
167.50493399999999
 30
0.0
 40
2.0
 50
308.293477
 51
0.0
  0
ARC
  5
96A0
  8
DANMEN
  6
CONTINUOUS
 10
225.21532199999999
 20
167.589179
 30
0.0
 40
1.0
 50
294.62431800000002
 51
0.0
  0
ARC
  5
96A1
  8
DANMEN
  6
CONTINUOUS
 10
225.81532200000001
 20
166.23524
 30
0.0
 40
0.3
 50
180.0
 51
270.0
  0
LINE
  5
96A2
  8
DANMEN
  6
CONTINUOUS
 10
225.81532200000001
 20
165.93523999999991
 30
0.0
 11
226.95470099999989
 21
165.93523999999991
 31
0.0
  0
ARC
  5
96A3
  8
DANMEN
  6
CONTINUOUS
 10
225.71532199999999
 20
166.49830800000001
 30
0.0
 40
0.2
 50
114.6243179999999
 51
180.0
  0
LINE
  5
96A4
  8
DANMEN
  6
CONTINUOUS
 10
225.515322
 20
166.23524
 30
0.0
 11
225.515322
 21
166.49830800000001
 31
0.0
  0
LINE
  5
96A5
  8
DANMEN
  6
CONTINUOUS
 10
223.61532199999999
 20
169.83524
 30
0.0
 11
225.21532199999999
 21
169.83524
 31
0.0
  0
ARC
  5
96A6
  8
DANMEN
  6
CONTINUOUS
 10
222.915322
 20
182.5352399999999
 30
0.0
 40
3.0
 50
66.421821999999992
 51
113.57817799999999
  0
LINE
  5
96A7
  8
DANMEN
  6
CONTINUOUS
 10
221.415322
 20
171.5352399999999
 30
0.0
 11
221.415322
 21
184.82652799999991
 31
0.0
  0
ARC
  5
96A8
  8
DANMEN
  6
CONTINUOUS
 10
223.61532199999999
 20
168.83524
 30
0.0
 40
1.0
 50
90.0
 51
180.0
  0
ARC
  5
96A9
  8
DANMEN
  6
CONTINUOUS
 10
221.415322
 20
171.0352399999999
 30
0.0
 40
0.5
 50
90.0
 51
180.0
  0
ARC
  5
96AC
  8
DANMEN
  6
CONTINUOUS
 10
221.915322
 20
184.82652799999991
 30
0.0
 40
0.5
 50
113.57817799999999
 51
180.0
  0
LINE
  5
96B0
  8
DANMEN
  6
CONTINUOUS
 10
224.415322
 20
171.5352399999999
 30
0.0
 11
224.415322
 21
184.82652799999991
 31
0.0
  0
LINE
  5
96B1
  8
DANMEN
  6
CONTINUOUS
 10
228.7153219999999
 20
169.8852399999999
 30
0.0
 11
239.47968499999999
 21
169.8852399999999
 31
0.0
  0
LINE
  5
96B2
  8
DANMEN
  6
CONTINUOUS
 10
224.415322
 20
171.5352399999999
 30
0.0
 11
239.415322
 21
171.5352399999999
 31
0.0
  0
ARC
  5
96B3
  8
DANMEN
  6
CONTINUOUS
 10
228.7153219999999
 20
168.8852399999999
 30
0.0
 40
1.0
 50
90.0
 51
180.0
  0
ARC
  5
96B5
  8
DANMEN
  6
CONTINUOUS
 10
225.21532199999999
 20
168.83524
 30
0.0
 40
1.0
 50
0.0
 51
90.0
  0
ARC
  5
96B9
  8
DANMEN
  6
CONTINUOUS
 10
239.47968499999999
 20
170.8852399999999
 30
0.0
 40
1.0
 50
270.0
 51
281.309932
  0
ARC
  5
96BB
  8
DANMEN
  6
CONTINUOUS
 10
223.915322
 20
184.82652799999991
 30
0.0
 40
0.5
 50
0.0
 51
66.421821999999992
  0
LINE
  5
96BE
  8
DANMEN
  6
CONTINUOUS
 10
263.56532199999998
 20
188.397301
 30
0.0
 11
263.56532199999998
 21
197.93523999999991
 31
0.0
  0
LINE
  5
96BF
  8
DANMEN
  6
CONTINUOUS
 10
303.915322
 20
167.0352399999999
 30
0.0
 11
303.915322
 21
216.0352399999999
 31
0.0
  0
LINE
  5
96C0
  8
DANMEN
  6
CONTINUOUS
 10
302.26532200000003
 20
176.18523999999991
 30
0.0
 11
302.26532200000003
 21
202.86374399999991
 31
0.0
  0
LINE
  5
96C1
  8
DANMEN
  6
CONTINUOUS
 10
261.915322
 20
188.53523999999999
 30
0.0
 11
261.915322
 21
198.43523999999991
 31
0.0
  0
LINE
  5
96C2
  8
DANMEN
  6
CONTINUOUS
 10
260.56532199999998
 20
146.5352399999999
 30
0.0
 11
303.915322
 21
146.5352399999999
 31
0.0
  0
LINE
  5
96C3
  8
DANMEN
  6
CONTINUOUS
 10
260.56532199999998
 20
174.5352399999999
 30
0.0
 11
302.26532200000003
 21
174.5352399999999
 31
0.0
  0
LINE
  5
96C4
  8
DANMEN
  6
CONTINUOUS
 10
260.56532199999998
 20
176.18523999999991
 30
0.0
 11
302.26532200000003
 21
176.18523999999991
 31
0.0
  0
LINE
  5
96C5
  8
DANMEN
  6
CONTINUOUS
 10
258.915322
 20
177.3852399999999
 30
0.0
 11
258.915322
 21
158.18523400000001
 31
0.0
  0
ARC
  5
96C6
  8
DANMEN
  6
CONTINUOUS
 10
262.915322
 20
167.68523400000001
 30
0.0
 40
0.5
 50
0.0
 51
89.999981999999974
  0
ARC
  5
96C7
  8
DANMEN
  6
CONTINUOUS
 10
246.74039400000001
 20
168.766625
 30
0.0
 40
2.0
 50
191.0
 51
242.70652299999989
  0
LINE
  5
96C8
  8
DANMEN
  6
CONTINUOUS
 10
247.17898799999989
 20
167.55842100000001
 30
0.0
 11
247.128793
 21
167.81665599999999
 31
0.0
  0
LINE
  5
96C9
  8
DANMEN
  6
CONTINUOUS
 10
249.69029900000001
 20
167.74095600000001
 30
0.0
 11
250.80874499999999
 21
167.958359
 31
0.0
  0
ARC
  5
96CA
  8
DANMEN
  6
CONTINUOUS
 10
249.63305600000001
 20
168.0354439999999
 30
0.0
 40
0.3
 50
191.0
 51
281.0
  0
LINE
  5
96CB
  8
DANMEN
  6
CONTINUOUS
 10
245.823297
 20
166.98928599999999
 30
0.0
 11
246.941743
 21
167.2066899999999
 31
0.0
  0
ARC
  5
96CC
  8
DANMEN
  6
CONTINUOUS
 10
246.88449999999989
 20
167.50117800000001
 30
0.0
 40
0.3
 50
281.0
 51
11.0
  0
LINE
  5
96CD
  8
DANMEN
  6
CONTINUOUS
 10
260.56532199999998
 20
166.5352399999999
 30
0.0
 11
260.56532199999998
 21
147.0352399999999
 31
0.0
  0
LINE
  5
96CE
  8
DANMEN
  6
CONTINUOUS
 10
258.915322
 20
156.5352399999999
 30
0.0
 11
258.915322
 21
147.0352399999999
 31
0.0
  0
ARC
  5
96CF
  8
DANMEN
  6
CONTINUOUS
 10
260.06532199999998
 20
147.0352399999999
 30
0.0
 40
0.5
 50
270.0000179999999
 51
0.0
  0
ARC
  5
96D2
  8
DANMEN
  6
CONTINUOUS
 10
259.41532199999989
 20
147.0352399999999
 30
0.0
 40
0.5
 50
180.0000189999999
 51
270.000001
  0
LINE
  5
96D3
  8
DANMEN
  6
CONTINUOUS
 10
259.41532199999989
 20
146.5352399999999
 30
0.0
 11
260.06532199999998
 21
146.5352399999999
 31
0.0
  0
LINE
  5
96D7
  8
DANMEN
  6
CONTINUOUS
 10
260.56532199999998
 20
166.5352399999999
 30
0.0
 11
262.915322
 21
166.5352399999999
 31
0.0
  0
ARC
  5
96D9
  8
DANMEN
  6
CONTINUOUS
 10
262.915322
 20
167.0352399999999
 30
0.0
 40
0.5
 50
270.0000179999999
 51
0.0
  0
LINE
  5
96DA
  8
DANMEN
  6
CONTINUOUS
 10
263.41532199999989
 20
167.68523400000001
 30
0.0
 11
263.41532199999989
 21
167.0352399999999
 31
0.0
  0
LINE
  5
96DC
  8
DANMEN
  6
CONTINUOUS
 10
253.915322
 20
179.5352399999999
 30
0.0
 11
257.26544899999999
 21
179.5352399999999
 31
0.0
  0
LINE
  5
96DD
  8
DANMEN
  6
CONTINUOUS
 10
254.06532200000001
 20
177.8852399999999
 30
0.0
 11
258.415322
 21
177.8852399999999
 31
0.0
  0
ARC
  5
96DE
  8
DANMEN
  6
CONTINUOUS
 10
253.915322
 20
177.5352399999999
 30
0.0
 40
2.0
 50
90.0
 51
180.0
  0
LINE
  5
96DF
  8
DANMEN
  6
CONTINUOUS
 10
246.786564
 20
171.14952199999991
 30
0.0
 11
248.357168
 21
171.45481599999991
 31
0.0
  0
ARC
  5
96E0
  8
DANMEN
  6
CONTINUOUS
 10
243.51212100000001
 20
169.652119
 30
0.0
 40
1.0
 50
11.0
 51
101.3099319999999
  0
LINE
  5
96E1
  8
DANMEN
  6
CONTINUOUS
 10
244.77713900000001
 20
168.385007
 30
0.0
 11
244.49374800000001
 21
169.842928
 31
0.0
  0
LINE
  5
96E2
  8
DANMEN
  6
CONTINUOUS
 10
246.23350499999989
 20
168.75391799999991
 30
0.0
 11
245.995746
 21
169.97708600000001
 31
0.0
  0
ARC
  5
96E3
  8
DANMEN
  6
CONTINUOUS
 10
246.932467
 20
167.77849399999999
 30
0.0
 40
0.2
 50
11.0
 51
76.375681999999998
  0
ARC
  5
96E4
  8
DANMEN
  6
CONTINUOUS
 10
247.21513299999989
 20
168.944727
 30
0.0
 40
1.0
 50
191.0
 51
256.37568199999998
  0
ARC
  5
96E6
  8
DANMEN
  6
CONTINUOUS
 10
246.977373
 20
170.1678949999999
 30
0.0
 40
1.0
 50
101.0
 51
191.0
  0
ARC
  5
96E8
  8
DANMEN
  6
CONTINUOUS
 10
252.06532200000001
 20
173.9122689999999
 30
0.0
 40
1.5
 50
281.309932
 51
0.0
  0
LINE
  5
96E9
  8
DANMEN
  6
CONTINUOUS
 10
251.25587899999991
 20
169.64434700000001
 30
0.0
 11
250.9636109999999
 21
171.14793399999999
 31
0.0
  0
LINE
  5
96EA
  8
DANMEN
  6
CONTINUOUS
 10
249.7673629999999
 20
169.440831
 30
0.0
 11
249.52960399999989
 21
170.66399799999999
 31
0.0
  0
LINE
  5
96EB
  8
DANMEN
  6
CONTINUOUS
 10
249.33856800000001
 20
167.97820100000001
 30
0.0
 11
249.28837200000001
 21
168.236436
 31
0.0
  0
ARC
  5
96EC
  8
DANMEN
  6
CONTINUOUS
 10
248.78573600000001
 20
169.250022
 30
0.0
 40
1.0
 50
305.62431800000002
 51
11.0
  0
ARC
  5
96ED
  8
DANMEN
  6
CONTINUOUS
 10
249.48469800000001
 20
168.274597
 30
0.0
 40
0.2
 50
125.624318
 51
191.0
  0
ARC
  5
96EE
  8
DANMEN
  6
CONTINUOUS
 10
249.29262499999999
 20
169.26272900000001
 30
0.0
 40
2.0
 50
319.29347699999988
 51
11.0
  0
ARC
  5
96F0
  8
DANMEN
  6
CONTINUOUS
 10
248.54797699999989
 20
170.47318899999991
 30
0.0
 40
1.0
 50
11.0
 51
101.0
  0
LINE
  5
96F1
  8
DANMEN
  6
CONTINUOUS
 10
252.35949600000001
 20
172.44139799999999
 30
0.0
 11
251.749122
 21
172.31932399999999
 31
0.0
  0
ARC
  5
96F2
  8
DANMEN
  6
CONTINUOUS
 10
251.94523799999999
 20
171.33874299999999
 30
0.0
 40
1.0
 50
101.3099319999999
 51
191.0
  0
LINE
  5
96F5
  8
DANMEN
  6
CONTINUOUS
 10
251.915322
 20
174.85504399999991
 30
0.0
 11
251.915322
 21
177.5352399999999
 31
0.0
  0
ARC
  5
96F6
  8
DANMEN
  6
CONTINUOUS
 10
250.915322
 20
174.85504399999991
 30
0.0
 40
1.0
 50
281.309932
 51
0.0
  0
LINE
  5
96F8
  8
DANMEN
  6
CONTINUOUS
 10
253.5653219999999
 20
173.9122689999999
 30
0.0
 11
253.5653219999999
 21
177.3852399999999
 31
0.0
  0
ARC
  5
96F9
  8
DANMEN
  6
CONTINUOUS
 10
254.06532200000001
 20
177.3852399999999
 30
0.0
 40
0.5
 50
90.0
 51
180.0
  0
ARC
  5
96FC
  8
DANMEN
  6
CONTINUOUS
 10
260.06532199999998
 20
179.0352399999999
 30
0.0
 40
0.5
 50
0.0
 51
67.055369999999996
  0
LINE
  5
96FD
  8
DANMEN
  6
CONTINUOUS
 10
260.56532199999998
 20
174.5352399999999
 30
0.0
 11
260.56532199999998
 21
168.18523400000001
 31
0.0
  0
LINE
  5
96FE
  8
DANMEN
  6
CONTINUOUS
 10
260.56532199999998
 20
168.18523400000001
 30
0.0
 11
262.915322
 21
168.18523400000001
 31
0.0
  0
LINE
  5
9702
  8
DANMEN
  6
CONTINUOUS
 10
260.56532199999998
 20
179.0352399999999
 30
0.0
 11
260.56532199999998
 21
176.18523999999991
 31
0.0
  0
ARC
  5
9704
  8
DANMEN
  6
CONTINUOUS
 10
258.415322
 20
177.3852399999999
 30
0.0
 40
0.5
 50
0.0
 51
90.0
  0
LINE
  5
9706
  8
DANMEN
  6
CONTINUOUS
 10
261.915322
 20
188.53523999999999
 30
0.0
 11
258.17925999999989
 21
180.1291019999999
 31
0.0
  0
LINE
  5
9707
  8
DANMEN
  6
CONTINUOUS
 10
263.47913399999999
 20
187.991162
 30
0.0
 11
259.99825800000002
 21
180.15919099999991
 31
0.0
  0
ARC
  5
9709
  8
DANMEN
  6
CONTINUOUS
 10
257.26544899999999
 20
180.5352399999999
 30
0.0
 40
1.0
 50
270.0
 51
336.03751099999999
  0
ARC
  5
970B
  8
DANMEN
  6
CONTINUOUS
 10
260.45516299999991
 20
179.95612199999999
 30
0.0
 40
0.5
 50
156.03751099999999
 51
247.0553699999999
  0
ARC
  5
970C
  8
DANMEN
  6
CONTINUOUS
 10
262.56532199999998
 20
188.397301
 30
0.0
 40
1.0
 50
336.03751099999999
 51
0.0
  0
ARC
  5
970E
  8
DANMEN
  6
CONTINUOUS
 10
295.915322
 20
167.68523400000001
 30
0.0
 40
0.5
 50
89.999981999999974
 51
180.0000189999999
  0
LINE
  5
970F
  8
DANMEN
  6
CONTINUOUS
 10
295.915322
 20
166.5352399999999
 30
0.0
 11
303.415322
 21
166.5352399999999
 31
0.0
  0
ARC
  5
9710
  8
DANMEN
  6
CONTINUOUS
 10
295.915322
 20
167.0352399999999
 30
0.0
 40
0.5
 50
180.0000189999999
 51
270.000001
  0
LINE
  5
9711
  8
DANMEN
  6
CONTINUOUS
 10
295.415322
 20
167.68523400000001
 30
0.0
 11
295.415322
 21
167.0352399999999
 31
0.0
  0
ARC
  5
9713
  8
DANMEN
  6
CONTINUOUS
 10
303.415322
 20
167.0352399999999
 30
0.0
 40
0.5
 50
270.0000179999999
 51
0.0
  0
LINE
  5
9715
  8
DANMEN
  6
CONTINUOUS
 10
295.915322
 20
168.18523400000001
 30
0.0
 11
302.2653279999999
 21
168.18523400000001
 31
0.0
  0
LINE
  5
9717
  8
DANMEN
  6
CONTINUOUS
 10
302.26532200000003
 20
168.18523400000001
 30
0.0
 11
302.26532200000003
 21
174.5352399999999
 31
0.0
  0
LINE
  5
971B
  8
DANMEN
  6
CONTINUOUS
 10
286.61532199999999
 20
200.8852399999999
 30
0.0
 11
272.21532200000001
 21
200.8852399999999
 31
0.0
  0
LINE
  5
971C
  8
DANMEN
  6
CONTINUOUS
 10
289.915322
 20
202.53523999999999
 30
0.0
 11
272.415322
 21
202.53523999999999
 31
0.0
  0
LINE
  5
971D
  8
DANMEN
  6
CONTINUOUS
 10
272.415322
 20
202.53523999999999
 30
0.0
 11
272.415322
 21
215.82652799999991
 31
0.0
  0
LINE
  5
971E
  8
DANMEN
  6
CONTINUOUS
 10
269.415322
 20
202.53523999999999
 30
0.0
 11
269.415322
 21
215.82652799999991
 31
0.0
  0
LINE
  5
971F
  8
DANMEN
  6
CONTINUOUS
 10
252.415322
 20
199.5352399999999
 30
0.0
 11
261.915322
 21
199.5352399999999
 31
0.0
  0
LINE
  5
9720
  8
DANMEN
  6
CONTINUOUS
 10
255.415322
 20
198.43523999999991
 30
0.0
 11
261.915322
 21
198.43523999999991
 31
0.0
  0
LINE
  5
9721
  8
DANMEN
  6
CONTINUOUS
 10
255.415322
 20
192.0352399999999
 30
0.0
 11
255.415322
 21
198.43523999999991
 31
0.0
  0
LINE
  5
9722
  8
DANMEN
  6
CONTINUOUS
 10
254.415322
 20
192.5352399999999
 30
0.0
 11
254.415322
 21
198.53523999999999
 31
0.0
  0
LINE
  5
9723
  8
DANMEN
  6
CONTINUOUS
 10
253.915322
 20
197.0352399999999
 30
0.0
 11
253.11532199999999
 21
196.23524
 31
0.0
  0
LINE
  5
9724
  8
DANMEN
  6
CONTINUOUS
 10
251.11532199999999
 20
198.73523999999989
 30
0.0
 11
251.11532199999999
 21
196.6352399999999
 31
0.0
  0
ARC
  5
9725
  8
DANMEN
  6
CONTINUOUS
 10
260.94733300000001
 20
194.81351000000001
 30
0.0
 40
12.0
 50
156.82894400000001
 51
179.71685299999999
  0
ARC
  5
9726
  8
DANMEN
  6
CONTINUOUS
 10
260.936286
 20
194.3588949999999
 30
0.0
 40
11.5
 50
157.63213799999991
 51
177.49921999999989
  0
LINE
  5
9727
  8
DANMEN
  6
CONTINUOUS
 10
252.415322
 20
191.5352399999999
 30
0.0
 11
254.915322
 21
191.5352399999999
 31
0.0
  0
LINE
  5
9728
  8
DANMEN
  6
CONTINUOUS
 10
252.415322
 20
193.73524
 30
0.0
 11
252.71532199999999
 21
193.73524
 31
0.0
  0
LINE
  5
9729
  8
DANMEN
  6
CONTINUOUS
 10
251.915322
 20
193.73523899999989
 30
0.0
 11
252.915322
 21
193.73523899999989
 31
0.0
  0
LINE
  5
972A
  8
DANMEN
  6
CONTINUOUS
 10
251.915322
 20
192.0352399999999
 30
0.0
 11
251.915322
 21
193.23524
 31
0.0
  0
ARC
  5
972B
  8
DANMEN
  6
CONTINUOUS
 10
252.415322
 20
192.0352399999999
 30
0.0
 40
0.5
 50
180.0
 51
270.0
  0
ARC
  5
972D
  8
DANMEN
  6
CONTINUOUS
 10
252.415322
 20
193.23524
 30
0.0
 40
0.5
 50
90.0
 51
180.0
  0
LINE
  5
972F
  8
DANMEN
  6
CONTINUOUS
 10
251.915322
 20
193.73523899999989
 30
0.0
 11
251.915322
 21
192.73523899999989
 31
0.0
  0
LINE
  5
9730
  8
DANMEN
  6
CONTINUOUS
 10
251.515321
 20
192.73523899999989
 30
0.0
 11
251.915322
 21
192.73523899999989
 31
0.0
  0
LINE
  5
9733
  8
DANMEN
  6
CONTINUOUS
 10
251.3153219999999
 20
194.23524
 30
0.0
 11
251.3153219999999
 21
192.935239
 31
0.0
  0
ARC
  5
9735
  8
DANMEN
  6
CONTINUOUS
 10
251.515321
 20
192.935239
 30
0.0
 40
0.2
 50
180.0000189999999
 51
270.000001
  0
LINE
  5
9736
  8
DANMEN
  6
CONTINUOUS
 10
251.515322
 20
196.23524
 30
0.0
 11
251.915322
 21
196.23524
 31
0.0
  0
LINE
  5
9738
  8
DANMEN
  6
CONTINUOUS
 10
251.915322
 20
196.23524
 30
0.0
 11
251.915322
 21
194.5352399999999
 31
0.0
  0
ARC
  5
973B
  8
DANMEN
  6
CONTINUOUS
 10
251.515322
 20
196.6352399999999
 30
0.0
 40
0.4
 50
180.0000189999999
 51
270.000001
  0
ARC
  5
973C
  8
DANMEN
  6
CONTINUOUS
 10
249.19747699999999
 20
194.87158199999999
 30
0.0
 40
0.25
 50
179.71685299999999
 51
357.49921999999998
  0
ARC
  5
973E
  8
DANMEN
  6
CONTINUOUS
 10
249.86532199999999
 20
195.7852399999999
 30
0.0
 40
0.15
 50
27.871157
 51
207.87117900000001
  0
LINE
  5
9744
  8
DANMEN
  6
CONTINUOUS
 10
250.69604100000001
 20
194.5352399999999
 30
0.0
 11
251.915322
 21
194.5352399999999
 31
0.0
  0
LINE
  5
9745
  8
DANMEN
  6
CONTINUOUS
 10
250.515322
 20
194.23524
 30
0.0
 11
251.3153219999999
 21
194.23524
 31
0.0
  0
LINE
  5
9747
  8
DANMEN
  6
CONTINUOUS
 10
249.732722
 20
195.71511699999991
 30
0.0
 11
250.515322
 21
194.23524
 31
0.0
  0
LINE
  5
9748
  8
DANMEN
  6
CONTINUOUS
 10
249.99792199999999
 20
195.85536200000001
 30
0.0
 11
250.69604000000001
 21
194.5352399999999
 31
0.0
  0
ARC
  5
974D
  8
DANMEN
  6
CONTINUOUS
 10
254.915322
 20
192.0352399999999
 30
0.0
 40
0.5
 50
270.0
 51
0.0
  0
LINE
  5
974F
  8
DANMEN
  6
CONTINUOUS
 10
252.71532199999999
 20
192.5352399999999
 30
0.0
 11
252.71532199999999
 21
193.73524
 31
0.0
  0
LINE
  5
9751
  8
DANMEN
  6
CONTINUOUS
 10
252.71532199999999
 20
192.5352399999999
 30
0.0
 11
254.415322
 21
192.5352399999999
 31
0.0
  0
LINE
  5
9754
  8
DANMEN
  6
CONTINUOUS
 10
253.11532199999999
 20
192.5352399999999
 30
0.0
 11
253.7153219999999
 21
192.5352399999999
 31
0.0
  0
ARC
  5
9756
  8
DANMEN
  6
CONTINUOUS
 10
253.7153219999999
 20
192.73523899999989
 30
0.0
 40
0.2
 50
270.0000179999999
 51
0.0
  0
ARC
  5
9758
  8
DANMEN
  6
CONTINUOUS
 10
253.11532199999999
 20
192.73523899999989
 30
0.0
 40
0.2
 50
180.0000189999999
 51
270.000001
  0
LINE
  5
975A
  8
DANMEN
  6
CONTINUOUS
 10
253.915322
 20
193.73523899999989
 30
0.0
 11
253.915322
 21
192.73523899999989
 31
0.0
  0
LINE
  5
975C
  8
DANMEN
  6
CONTINUOUS
 10
253.11532199999999
 20
194.5352399999999
 30
0.0
 11
253.915322
 21
193.73524
 31
0.0
  0
LINE
  5
975D
  8
DANMEN
  6
CONTINUOUS
 10
252.915322
 20
193.73523899999989
 30
0.0
 11
252.915322
 21
192.73523899999989
 31
0.0
  0
LINE
  5
9760
  8
DANMEN
  6
CONTINUOUS
 10
253.11532199999999
 20
196.23524
 30
0.0
 11
253.11532199999999
 21
194.5352399999999
 31
0.0
  0
LINE
  5
9764
  8
DANMEN
  6
CONTINUOUS
 10
252.415322
 20
197.33523999999991
 30
0.0
 11
252.71532199999999
 21
197.33523999999991
 31
0.0
  0
LINE
  5
9765
  8
DANMEN
  6
CONTINUOUS
 10
251.915322
 20
197.0352399999999
 30
0.0
 11
252.915322
 21
197.0352399999999
 31
0.0
  0
ARC
  5
9766
  8
DANMEN
  6
CONTINUOUS
 10
252.415322
 20
199.0352399999999
 30
0.0
 40
0.5
 50
90.0
 51
180.0
  0
LINE
  5
9768
  8
DANMEN
  6
CONTINUOUS
 10
251.915322
 20
197.83524
 30
0.0
 11
251.915322
 21
199.0352399999999
 31
0.0
  0
ARC
  5
9769
  8
DANMEN
  6
CONTINUOUS
 10
252.415322
 20
197.83524
 30
0.0
 40
0.5
 50
180.0
 51
270.0
  0
LINE
  5
976B
  8
DANMEN
  6
CONTINUOUS
 10
249.915322
 20
199.5352399999999
 30
0.0
 11
251.915322
 21
199.5352399999999
 31
0.0
  0
LINE
  5
976C
  8
DANMEN
  6
CONTINUOUS
 10
251.915322
 20
199.5352399999999
 30
0.0
 11
251.915322
 21
197.0352399999999
 31
0.0
  0
LINE
  5
9771
  8
DANMEN
  6
CONTINUOUS
 10
250.3015509999999
 20
198.73523999999989
 30
0.0
 11
251.11532199999999
 21
198.73523999999989
 31
0.0
  0
LINE
  5
9775
  8
DANMEN
  6
CONTINUOUS
 10
252.71532199999999
 20
197.33523999999991
 30
0.0
 11
252.71532199999999
 21
198.53523999999999
 31
0.0
  0
LINE
  5
9777
  8
DANMEN
  6
CONTINUOUS
 10
252.71532199999999
 20
198.53523999999999
 30
0.0
 11
254.415322
 21
198.53523999999999
 31
0.0
  0
LINE
  5
977A
  8
DANMEN
  6
CONTINUOUS
 10
253.915322
 20
198.0352399999999
 30
0.0
 11
253.915322
 21
197.0352399999999
 31
0.0
  0
LINE
  5
977B
  8
DANMEN
  6
CONTINUOUS
 10
253.11532199999999
 20
198.23523899999989
 30
0.0
 11
253.7153219999999
 21
198.23523899999989
 31
0.0
  0
LINE
  5
977C
  8
DANMEN
  6
CONTINUOUS
 10
252.915322
 20
198.0352399999999
 30
0.0
 11
252.915322
 21
197.0352399999999
 31
0.0
  0
ARC
  5
977E
  8
DANMEN
  6
CONTINUOUS
 10
253.7153219999999
 20
198.0352399999999
 30
0.0
 40
0.2
 50
0.0
 51
89.999981999999974
  0
ARC
  5
9780
  8
DANMEN
  6
CONTINUOUS
 10
253.11532199999999
 20
198.0352399999999
 30
0.0
 40
0.2
 50
89.999981999999974
 51
180.0000189999999
  0
ARC
  5
9783
  8
DANMEN
  6
CONTINUOUS
 10
262.915322
 20
201.5352399999999
 30
0.0
 40
1.0
 50
90.0
 51
180.0
  0
LINE
  5
9784
  8
DANMEN
  6
CONTINUOUS
 10
262.915322
 20
202.53523999999999
 30
0.0
 11
269.415322
 21
202.53523999999999
 31
0.0
  0
ARC
  5
9785
  8
DANMEN
  6
CONTINUOUS
 10
266.61532199999999
 20
198.50493399999999
 30
0.0
 40
2.0
 50
193.172146
 51
231.706523
  0
LINE
  5
9786
  8
DANMEN
  6
CONTINUOUS
 10
261.915322
 20
199.5352399999999
 30
0.0
 11
261.915322
 21
201.5352399999999
 31
0.0
  0
LINE
  5
978A
  8
DANMEN
  6
CONTINUOUS
 10
264.06532199999998
 20
198.43523999999991
 30
0.0
 11
264.18109700000002
 21
198.43523999999991
 31
0.0
  0
ARC
  5
978B
  8
DANMEN
  6
CONTINUOUS
 10
264.06532199999998
 20
197.93523999999991
 30
0.0
 40
0.5
 50
90.0
 51
180.0
  0
ARC
  5
978D
  8
DANMEN
  6
CONTINUOUS
 10
264.18109700000002
 20
197.93523999999991
 30
0.0
 40
0.5
 50
13.172146
 51
90.0
  0
ARC
  5
978F
  8
DANMEN
  6
CONTINUOUS
 10
268.71532200000001
 20
199.83524
 30
0.0
 40
1.0
 50
0.0
 51
90.0
  0
LINE
  5
9791
  8
DANMEN
  6
CONTINUOUS
 10
266.11532199999999
 20
198.589179
 30
0.0
 11
266.11532199999999
 21
199.83524
 31
0.0
  0
ARC
  5
9792
  8
DANMEN
  6
CONTINUOUS
 10
266.51532200000003
 20
197.23524
 30
0.0
 40
0.3
 50
270.0
 51
0.0
  0
LINE
  5
9793
  8
DANMEN
  6
CONTINUOUS
 10
265.37594300000001
 20
196.93523999999999
 30
0.0
 11
266.51532200000003
 21
196.93523999999999
 31
0.0
  0
LINE
  5
9794
  8
DANMEN
  6
CONTINUOUS
 10
266.81532199999998
 20
197.23524
 30
0.0
 11
266.81532199999998
 21
197.49830800000001
 31
0.0
  0
ARC
  5
9795
  8
DANMEN
  6
CONTINUOUS
 10
267.11532199999999
 20
198.589179
 30
0.0
 40
1.0
 50
180.0
 51
245.3756819999999
  0
ARC
  5
9796
  8
DANMEN
  6
CONTINUOUS
 10
266.61532199999999
 20
197.49830800000001
 30
0.0
 40
0.2
 50
0.0
 51
65.375681999999983
  0
LINE
  5
9797
  8
DANMEN
  6
CONTINUOUS
 10
267.11532199999999
 20
200.83524
 30
0.0
 11
268.71532200000001
 21
200.83524
 31
0.0
  0
ARC
  5
9798
  8
DANMEN
  6
CONTINUOUS
 10
267.11532199999999
 20
199.83524
 30
0.0
 40
1.0
 50
90.0
 51
180.0
  0
LINE
  5
979B
  8
DANMEN
  6
CONTINUOUS
 10
271.21532200000001
 20
198.50493399999999
 30
0.0
 11
271.21532200000001
 21
199.8852399999999
 31
0.0
  0
LINE
  5
979C
  8
DANMEN
  6
CONTINUOUS
 10
269.71532200000001
 20
198.589179
 30
0.0
 11
269.71532200000001
 21
199.83524
 31
0.0
  0
ARC
  5
979D
  8
DANMEN
  6
CONTINUOUS
 10
269.31532199999998
 20
197.23524
 30
0.0
 40
0.3
 50
180.0
 51
270.0
  0
LINE
  5
979E
  8
DANMEN
  6
CONTINUOUS
 10
269.31532199999998
 20
196.93523999999999
 30
0.0
 11
270.454701
 21
196.93523999999999
 31
0.0
  0
ARC
  5
97A0
  8
DANMEN
  6
CONTINUOUS
 10
269.21532200000001
 20
198.50493399999999
 30
0.0
 40
2.0
 50
308.293477
 51
0.0
  0
ARC
  5
97A1
  8
DANMEN
  6
CONTINUOUS
 10
269.21532200000001
 20
197.49830800000001
 30
0.0
 40
0.2
 50
114.6243179999999
 51
180.0
  0
ARC
  5
97A2
  8
DANMEN
  6
CONTINUOUS
 10
268.71532200000001
 20
198.589179
 30
0.0
 40
1.0
 50
294.62431800000002
 51
0.0
  0
LINE
  5
97A3
  8
DANMEN
  6
CONTINUOUS
 10
269.01532200000003
 20
197.23524
 30
0.0
 11
269.01532200000003
 21
197.49830800000001
 31
0.0
  0
ARC
  5
97A4
  8
DANMEN
  6
CONTINUOUS
 10
272.21532200000001
 20
199.8852399999999
 30
0.0
 40
1.0
 50
90.0
 51
180.0
  0
ARC
  5
97A9
  8
DANMEN
  6
CONTINUOUS
 10
270.915322
 20
213.5352399999999
 30
0.0
 40
3.0
 50
66.421821999999992
 51
113.57817799999999
  0
ARC
  5
97AA
  8
DANMEN
  6
CONTINUOUS
 10
269.91532199999989
 20
215.82652799999991
 30
0.0
 40
0.5
 50
113.57817799999999
 51
180.0
  0
ARC
  5
97AC
  8
DANMEN
  6
CONTINUOUS
 10
271.91532199999989
 20
215.82652799999991
 30
0.0
 40
0.5
 50
0.0
 51
66.421821999999992
  0
LINE
  5
97AE
  8
DANMEN
  6
CONTINUOUS
 10
302.26532200000003
 20
209.5352399999999
 30
0.0
 11
302.26532200000003
 21
215.5352399999999
 31
0.0
  0
LINE
  5
97AF
  8
DANMEN
  6
CONTINUOUS
 10
301.915322
 20
215.03523999999999
 30
0.0
 11
301.915322
 21
214.0352399999999
 31
0.0
  0
LINE
  5
97B0
  8
DANMEN
  6
CONTINUOUS
 10
300.91532199999989
 20
215.03523999999999
 30
0.0
 11
300.91532199999989
 21
214.0352399999999
 31
0.0
  0
LINE
  5
97B1
  8
DANMEN
  6
CONTINUOUS
 10
299.915322
 20
216.5352399999999
 30
0.0
 11
299.915322
 21
214.0352399999999
 31
0.0
  0
LINE
  5
97B2
  8
DANMEN
  6
CONTINUOUS
 10
299.11532199999999
 20
215.73524
 30
0.0
 11
299.11532199999999
 21
213.6352399999999
 31
0.0
  0
ARC
  5
97B3
  8
DANMEN
  6
CONTINUOUS
 10
308.94733300000001
 20
211.81350999999989
 30
0.0
 40
12.0
 50
156.82894400000001
 51
179.71685299999999
  0
ARC
  5
97B4
  8
DANMEN
  6
CONTINUOUS
 10
308.936286
 20
211.35889499999999
 30
0.0
 40
11.5
 50
157.63213799999991
 51
177.49921999999989
  0
ARC
  5
97B5
  8
DANMEN
  6
CONTINUOUS
 10
290.11532199999999
 20
198.589179
 30
0.0
 40
1.0
 50
180.0
 51
245.3756819999999
  0
ARC
  5
97B6
  8
DANMEN
  6
CONTINUOUS
 10
290.11532199999999
 20
199.83524
 30
0.0
 40
1.0
 50
90.0
 51
180.0
  0
LINE
  5
97B7
  8
DANMEN
  6
CONTINUOUS
 10
288.37594299999989
 20
196.93523999999999
 30
0.0
 11
289.51532200000003
 21
196.93523999999999
 31
0.0
  0
ARC
  5
97B9
  8
DANMEN
  6
CONTINUOUS
 10
286.61532199999999
 20
199.8852399999999
 30
0.0
 40
1.0
 50
0.0
 51
90.0
  0
ARC
  5
97BA
  8
DANMEN
  6
CONTINUOUS
 10
289.61532199999999
 20
198.50493399999999
 30
0.0
 40
2.0
 50
180.0
 51
231.706523
  0
LINE
  5
97BB
  8
DANMEN
  6
CONTINUOUS
 10
287.61532199999999
 20
198.50493399999999
 30
0.0
 11
287.61532199999999
 21
199.8852399999999
 31
0.0
  0
LINE
  5
97BC
  8
DANMEN
  6
CONTINUOUS
 10
289.11532199999999
 20
198.589179
 30
0.0
 11
289.11532199999999
 21
199.83524
 31
0.0
  0
LINE
  5
97BD
  8
DANMEN
  6
CONTINUOUS
 10
295.05546099999992
 20
201.69615499999989
 30
0.0
 11
302.26532200000003
 21
202.86374399999991
 31
0.0
  0
LINE
  5
97BE
  8
DANMEN
  6
CONTINUOUS
 10
289.915322
 20
202.53523999999999
 30
0.0
 11
302.26532200000003
 21
204.53523999999999
 31
0.0
  0
LINE
  5
97BF
  8
DANMEN
  6
CONTINUOUS
 10
292.31532199999998
 20
196.93523999999999
 30
0.0
 11
293.454701
 21
196.93523999999999
 31
0.0
  0
LINE
  5
97C1
  8
DANMEN
  6
CONTINUOUS
 10
292.01532200000003
 20
197.23524
 30
0.0
 11
292.01532200000003
 21
197.49830800000001
 31
0.0
  0
ARC
  5
97C2
  8
DANMEN
  6
CONTINUOUS
 10
291.71532200000001
 20
198.589179
 30
0.0
 40
1.0
 50
294.62431800000002
 51
0.0
  0
ARC
  5
97C3
  8
DANMEN
  6
CONTINUOUS
 10
292.21532200000001
 20
197.49830800000001
 30
0.0
 40
0.2
 50
114.6243179999999
 51
180.0
  0
LINE
  5
97C4
  8
DANMEN
  6
CONTINUOUS
 10
292.71532200000001
 20
198.589179
 30
0.0
 11
292.71532200000001
 21
199.83524
 31
0.0
  0
ARC
  5
97C5
  8
DANMEN
  6
CONTINUOUS
 10
289.61532199999999
 20
197.49830800000001
 30
0.0
 40
0.2
 50
0.0
 51
65.375681999999983
  0
LINE
  5
97C6
  8
DANMEN
  6
CONTINUOUS
 10
289.81532199999998
 20
197.23524
 30
0.0
 11
289.81532199999998
 21
197.49830800000001
 31
0.0
  0
ARC
  5
97C7
  8
DANMEN
  6
CONTINUOUS
 10
291.71532200000001
 20
199.83524
 30
0.0
 40
1.0
 50
0.0
 51
90.0
  0
LINE
  5
97C8
  8
DANMEN
  6
CONTINUOUS
 10
290.11532199999999
 20
200.83524
 30
0.0
 11
291.71532200000001
 21
200.83524
 31
0.0
  0
ARC
  5
97CB
  8
DANMEN
  6
CONTINUOUS
 10
292.31532199999998
 20
197.23524
 30
0.0
 40
0.3
 50
180.0
 51
270.0
  0
ARC
  5
97CC
  8
DANMEN
  6
CONTINUOUS
 10
289.51532200000003
 20
197.23524
 30
0.0
 40
0.3
 50
270.0
 51
0.0
  0
ARC
  5
97CE
  8
DANMEN
  6
CONTINUOUS
 10
295.2153219999999
 20
200.70901599999991
 30
0.0
 40
1.0
 50
99.198808999999997
 51
180.0
  0
ARC
  5
97CF
  8
DANMEN
  6
CONTINUOUS
 10
292.21532200000001
 20
198.50493399999999
 30
0.0
 40
2.0
 50
308.293477
 51
0.0
  0
LINE
  5
97D0
  8
DANMEN
  6
CONTINUOUS
 10
294.21532200000001
 20
198.50493399999999
 30
0.0
 11
294.21532200000001
 21
200.70901599999991
 31
0.0
  0
ARC
  5
97D1
  8
DANMEN
  6
CONTINUOUS
 10
297.19747699999999
 20
211.8715819999999
 30
0.0
 40
0.25
 50
179.71685299999999
 51
357.49921999999998
  0
LINE
  5
97D5
  8
DANMEN
  6
CONTINUOUS
 10
302.26532200000003
 20
204.53523999999999
 30
0.0
 11
302.26532200000003
 21
208.53523999999999
 31
0.0
  0
LINE
  5
97D8
  8
DANMEN
  6
CONTINUOUS
 10
300.415322
 20
208.53523999999999
 30
0.0
 11
302.26532200000003
 21
208.53523999999999
 31
0.0
  0
LINE
  5
97D9
  8
DANMEN
  6
CONTINUOUS
 10
300.71532200000001
 20
209.5352399999999
 30
0.0
 11
302.26532200000003
 21
209.5352399999999
 31
0.0
  0
LINE
  5
97DA
  8
DANMEN
  6
CONTINUOUS
 10
301.11532199999999
 20
209.5352399999999
 30
0.0
 11
301.71532200000001
 21
209.5352399999999
 31
0.0
  0
LINE
  5
97DB
  8
DANMEN
  6
CONTINUOUS
 10
301.915322
 20
214.0352399999999
 30
0.0
 11
301.11532199999999
 21
213.23524
 31
0.0
  0
LINE
  5
97DC
  8
DANMEN
  6
CONTINUOUS
 10
301.11532199999999
 20
211.5352399999999
 30
0.0
 11
301.915322
 21
210.73523999999989
 31
0.0
  0
LINE
  5
97DD
  8
DANMEN
  6
CONTINUOUS
 10
299.915322
 20
209.0352399999999
 30
0.0
 11
299.915322
 21
210.23524
 31
0.0
  0
ARC
  5
97DE
  8
DANMEN
  6
CONTINUOUS
 10
300.415322
 20
209.0352399999999
 30
0.0
 40
0.5
 50
180.0
 51
270.0
  0
LINE
  5
97E0
  8
DANMEN
  6
CONTINUOUS
 10
300.71532200000001
 20
209.5352399999999
 30
0.0
 11
300.71532200000001
 21
210.73523999999989
 31
0.0
  0
LINE
  5
97E1
  8
DANMEN
  6
CONTINUOUS
 10
300.415322
 20
210.73523999999989
 30
0.0
 11
300.71532200000001
 21
210.73523999999989
 31
0.0
  0
ARC
  5
97E2
  8
DANMEN
  6
CONTINUOUS
 10
300.415322
 20
210.23524
 30
0.0
 40
0.5
 50
90.0
 51
180.0
  0
LINE
  5
97E6
  8
DANMEN
  6
CONTINUOUS
 10
299.915322
 20
210.73523899999989
 30
0.0
 11
299.915322
 21
209.73523900000001
 31
0.0
  0
ARC
  5
97E8
  8
DANMEN
  6
CONTINUOUS
 10
301.11532199999999
 20
209.73523900000001
 30
0.0
 40
0.2
 50
180.0000189999999
 51
270.000001
  0
LINE
  5
97E9
  8
DANMEN
  6
CONTINUOUS
 10
299.915322
 20
214.0352399999999
 30
0.0
 11
300.91532199999989
 21
214.0352399999999
 31
0.0
  0
LINE
  5
97EA
  8
DANMEN
  6
CONTINUOUS
 10
300.91532199999989
 20
210.73523899999989
 30
0.0
 11
300.91532199999989
 21
209.73523900000001
 31
0.0
  0
LINE
  5
97EC
  8
DANMEN
  6
CONTINUOUS
 10
299.51532099999991
 20
209.73523900000001
 30
0.0
 11
299.915322
 21
209.73523900000001
 31
0.0
  0
LINE
  5
97EE
  8
DANMEN
  6
CONTINUOUS
 10
299.915322
 20
210.73523899999989
 30
0.0
 11
300.91532199999989
 21
210.73523899999989
 31
0.0
  0
LINE
  5
97F1
  8
DANMEN
  6
CONTINUOUS
 10
299.31532199999998
 20
211.23524
 30
0.0
 11
299.31532199999998
 21
209.935239
 31
0.0
  0
ARC
  5
97F3
  8
DANMEN
  6
CONTINUOUS
 10
299.51532099999991
 20
209.935239
 30
0.0
 40
0.2
 50
180.0000189999999
 51
270.000001
  0
LINE
  5
97F4
  8
DANMEN
  6
CONTINUOUS
 10
299.51532200000003
 20
213.23524
 30
0.0
 11
299.915322
 21
213.23524
 31
0.0
  0
LINE
  5
97F8
  8
DANMEN
  6
CONTINUOUS
 10
301.11532199999999
 20
213.23524
 30
0.0
 11
301.11532199999999
 21
211.5352399999999
 31
0.0
  0
LINE
  5
97FB
  8
DANMEN
  6
CONTINUOUS
 10
299.915322
 20
213.23524
 30
0.0
 11
299.915322
 21
211.5352399999999
 31
0.0
  0
ARC
  5
97FE
  8
DANMEN
  6
CONTINUOUS
 10
299.51532200000003
 20
213.6352399999999
 30
0.0
 40
0.4
 50
180.0000189999999
 51
270.000001
  0
ARC
  5
97FF
  8
DANMEN
  6
CONTINUOUS
 10
297.86532199999999
 20
212.78523999999999
 30
0.0
 40
0.15
 50
27.871157
 51
207.87117900000001
  0
LINE
  5
9803
  8
DANMEN
  6
CONTINUOUS
 10
298.69604099999998
 20
211.5352399999999
 30
0.0
 11
299.915322
 21
211.5352399999999
 31
0.0
  0
LINE
  5
9804
  8
DANMEN
  6
CONTINUOUS
 10
298.51532200000003
 20
211.23524
 30
0.0
 11
299.31532199999998
 21
211.23524
 31
0.0
  0
LINE
  5
9806
  8
DANMEN
  6
CONTINUOUS
 10
297.73272200000002
 20
212.71511699999991
 30
0.0
 11
298.51532200000003
 21
211.23524
 31
0.0
  0
LINE
  5
9807
  8
DANMEN
  6
CONTINUOUS
 10
297.99792200000002
 20
212.85536200000001
 30
0.0
 11
298.69603999999998
 21
211.5352399999999
 31
0.0
  0
ARC
  5
980F
  8
DANMEN
  6
CONTINUOUS
 10
301.71532200000001
 20
209.73523900000001
 30
0.0
 40
0.2
 50
270.0000179999999
 51
0.0
  0
LINE
  5
9811
  8
DANMEN
  6
CONTINUOUS
 10
301.915322
 20
210.73523899999989
 30
0.0
 11
301.915322
 21
209.73523900000001
 31
0.0
  0
LINE
  5
9815
  8
DANMEN
  6
CONTINUOUS
 10
299.915322
 20
216.5352399999999
 30
0.0
 11
303.915322
 21
216.5352399999999
 31
0.0
  0
LINE
  5
9816
  8
DANMEN
  6
CONTINUOUS
 10
300.415322
 20
216.5352399999999
 30
0.0
 11
303.415322
 21
216.5352399999999
 31
0.0
  0
LINE
  5
9817
  8
DANMEN
  6
CONTINUOUS
 10
300.71532200000001
 20
215.5352399999999
 30
0.0
 11
302.26532200000003
 21
215.5352399999999
 31
0.0
  0
LINE
  5
9818
  8
DANMEN
  6
CONTINUOUS
 10
301.11532199999999
 20
215.23523900000001
 30
0.0
 11
301.71532200000001
 21
215.23523900000001
 31
0.0
  0
ARC
  5
9819
  8
DANMEN
  6
CONTINUOUS
 10
300.415322
 20
216.0352399999999
 30
0.0
 40
0.5
 50
90.0
 51
180.0
  0
LINE
  5
981B
  8
DANMEN
  6
CONTINUOUS
 10
300.415322
 20
214.33523999999991
 30
0.0
 11
300.71532200000001
 21
214.33523999999991
 31
0.0
  0
LINE
  5
981C
  8
DANMEN
  6
CONTINUOUS
 10
299.915322
 20
214.83523999999991
 30
0.0
 11
299.915322
 21
216.0352399999999
 31
0.0
  0
LINE
  5
981D
  8
DANMEN
  6
CONTINUOUS
 10
300.71532200000001
 20
214.33523999999991
 30
0.0
 11
300.71532200000001
 21
215.5352399999999
 31
0.0
  0
ARC
  5
981E
  8
DANMEN
  6
CONTINUOUS
 10
300.415322
 20
214.83523999999991
 30
0.0
 40
0.5
 50
180.0
 51
270.0
  0
LINE
  5
9822
  8
DANMEN
  6
CONTINUOUS
 10
297.915322
 20
216.5352399999999
 30
0.0
 11
299.915322
 21
216.5352399999999
 31
0.0
  0
ARC
  5
9824
  8
DANMEN
  6
CONTINUOUS
 10
301.11532199999999
 20
215.03523999999999
 30
0.0
 40
0.2
 50
89.999981999999974
 51
180.0000189999999
  0
LINE
  5
9828
  8
DANMEN
  6
CONTINUOUS
 10
298.3015509999999
 20
215.73524
 30
0.0
 11
299.11532199999999
 21
215.73524
 31
0.0
  0
ARC
  5
982C
  8
DANMEN
  6
CONTINUOUS
 10
303.415322
 20
216.0352399999999
 30
0.0
 40
0.5
 50
0.0
 51
90.0
  0
ARC
  5
982F
  8
DANMEN
  6
CONTINUOUS
 10
301.71532200000001
 20
215.03523999999999
 30
0.0
 40
0.2
 50
0.0
 51
89.999981999999974
  0
LINE
  5
9830
  8
DANMEN
  6
CONTINUOUS
 10
370.484217
 20
212.15054399999991
 30
0.0
 11
370.484217
 21
170.45054400000001
 31
0.0
  0
LINE
  5
9833
  8
DANMEN
  6
CONTINUOUS
 10
370.484217
 20
170.45054400000001
 30
0.0
 11
359.13421699999992
 21
170.45054400000001
 31
0.0
  0
LINE
  5
9834
  8
DANMEN
  6
CONTINUOUS
 10
359.13421699999992
 20
176.800544
 30
0.0
 11
359.13421699999992
 21
170.45054400000001
 31
0.0
  0
LINE
  5
9835
  8
DANMEN
  6
CONTINUOUS
 10
357.484217
 20
176.800544
 30
0.0
 11
357.484217
 21
169.300544
 31
0.0
  0
ARC
  5
9838
  8
DANMEN
  6
CONTINUOUS
 10
357.984217
 20
169.300544
 30
0.0
 40
0.5
 50
180.0
 51
270.0
  0
ARC
  5
983A
  8
DANMEN
  6
CONTINUOUS
 10
358.63421699999992
 20
176.800544
 30
0.0
 40
0.5
 50
0.0
 51
90.0
  0
ARC
  5
983C
  8
DANMEN
  6
CONTINUOUS
 10
357.984217
 20
176.800544
 30
0.0
 40
0.5
 50
90.0
 51
180.0
  0
LINE
  5
983D
  8
DANMEN
  6
CONTINUOUS
 10
358.63421699999992
 20
177.300544
 30
0.0
 11
357.984217
 21
177.300544
 31
0.0
  0
LINE
  5
9840
  8
DANMEN
  6
CONTINUOUS
 10
370.83421699999991
 20
216.80054399999989
 30
0.0
 11
370.83421699999991
 21
213.800544
 31
0.0
  0
LINE
  5
9841
  8
DANMEN
  6
CONTINUOUS
 10
347.98421699999989
 20
212.15054399999991
 30
0.0
 11
357.484217
 21
212.15054399999991
 31
0.0
  0
LINE
  5
9842
  8
DANMEN
  6
CONTINUOUS
 10
347.98421699999989
 20
213.800544
 30
0.0
 11
357.484217
 21
213.800544
 31
0.0
  0
LINE
  5
9843
  8
DANMEN
  6
CONTINUOUS
 10
347.484217
 20
213.300544
 30
0.0
 11
347.484217
 21
212.65054399999991
 31
0.0
  0
ARC
  5
9844
  8
DANMEN
  6
CONTINUOUS
 10
347.98421699999989
 20
212.65054399999991
 30
0.0
 40
0.5
 50
180.0000189999999
 51
270.000001
  0
ARC
  5
9845
  8
DANMEN
  6
CONTINUOUS
 10
347.98421699999989
 20
213.300544
 30
0.0
 40
0.5
 50
89.999981999999974
 51
180.0000189999999
  0
LINE
  5
9848
  8
DANMEN
  6
CONTINUOUS
 10
359.13421099999988
 20
212.15054399999991
 30
0.0
 11
370.484217
 21
212.15054399999991
 31
0.0
  0
LINE
  5
9849
  8
DANMEN
  6
CONTINUOUS
 10
359.13421099999988
 20
213.800544
 30
0.0
 11
370.83422299999989
 21
213.800544
 31
0.0
  0
ARC
  5
984A
  8
DANMEN
  6
CONTINUOUS
 10
358.63421099999988
 20
209.800544
 30
0.0
 40
0.5
 50
270.0000179999999
 51
359.99998099999988
  0
LINE
  5
984B
  8
DANMEN
  6
CONTINUOUS
 10
357.484217
 20
212.15054399999991
 30
0.0
 11
357.484217
 21
209.800544
 31
0.0
  0
LINE
  5
984C
  8
DANMEN
  6
CONTINUOUS
 10
357.984217
 20
209.300544
 30
0.0
 11
358.63421099999988
 21
209.300544
 31
0.0
  0
ARC
  5
984D
  8
DANMEN
  6
CONTINUOUS
 10
357.984217
 20
209.800544
 30
0.0
 40
0.5
 50
180.00003599999999
 51
269.99996299999992
  0
LINE
  5
9852
  8
DANMEN
  6
CONTINUOUS
 10
359.13421099999988
 20
212.15054399999991
 30
0.0
 11
359.13421099999988
 21
209.800544
 31
0.0
  0
LINE
  5
9859
  8
DANMEN
  6
CONTINUOUS
 10
370.484217
 20
216.80054399999989
 30
0.0
 11
370.83422299999989
 21
216.80054399999989
 31
0.0
  0
LINE
  5
985A
  8
DANMEN
  6
CONTINUOUS
 10
230.415322
 20
331.48523999999992
 30
0.0
 11
253.415322
 21
331.48523999999992
 31
0.0
  0
LINE
  5
985B
  8
DANMEN
  6
CONTINUOUS
 10
205.5653219999999
 20
338.050299
 30
0.0
 11
258.915322
 21
342.87849799999992
 31
0.0
  0
LINE
  5
985C
  8
DANMEN
  6
CONTINUOUS
 10
238.915322
 20
334.48523999999992
 30
0.0
 11
246.915322
 21
334.48523999999992
 31
0.0
  0
LINE
  5
985D
  8
DANMEN
  6
CONTINUOUS
 10
204.37005400000001
 20
339.57657899999998
 30
0.0
 11
258.915322
 21
344.53524099999998
 31
0.0
  0
LINE
  5
985E
  8
DANMEN
  6
CONTINUOUS
 10
203.915322
 20
339.07863300000002
 30
0.0
 11
203.915322
 21
305.03524499999997
 31
0.0
  0
LINE
  5
985F
  8
DANMEN
  6
CONTINUOUS
 10
230.415322
 20
328.33524
 30
0.0
 11
230.415322
 21
331.48523999999992
 31
0.0
  0
LINE
  5
9860
  8
DANMEN
  6
CONTINUOUS
 10
223.61532199999999
 20
331.56554599999993
 30
0.0
 11
223.61532199999999
 21
330.18523999999991
 31
0.0
  0
ARC
  5
9861
  8
DANMEN
  6
CONTINUOUS
 10
227.71532199999999
 20
330.23523999999992
 30
0.0
 40
1.0
 50
270.0
 51
0.0
  0
ARC
  5
9862
  8
DANMEN
  6
CONTINUOUS
 10
226.11532199999999
 20
330.23523999999992
 30
0.0
 40
1.0
 50
180.0
 51
270.0
  0
LINE
  5
9863
  8
DANMEN
  6
CONTINUOUS
 10
205.5653219999999
 20
329.18523999999991
 30
0.0
 11
205.5653219999999
 21
338.050299
 31
0.0
  0
LINE
  5
9864
  8
DANMEN
  6
CONTINUOUS
 10
203.915322
 20
305.03524499999997
 30
0.0
 11
203.915322
 21
262.03523999999987
 31
0.0
  0
LINE
  5
9865
  8
DANMEN
  6
CONTINUOUS
 10
205.56531599999991
 20
305.03523999999987
 30
0.0
 11
205.56531599999991
 21
262.03523999999987
 31
0.0
  0
LINE
  5
9866
  8
DANMEN
  6
CONTINUOUS
 10
205.5653219999999
 20
329.18523999999991
 30
0.0
 11
222.61532199999999
 21
329.18523999999991
 31
0.0
  0
LINE
  5
9867
  8
DANMEN
  6
CONTINUOUS
 10
205.5653219999999
 20
327.53523999999999
 30
0.0
 11
221.665322
 21
327.53523999999999
 31
0.0
  0
LINE
  5
9868
  8
DANMEN
  6
CONTINUOUS
 10
205.5653219999999
 20
305.03523999999987
 30
0.0
 11
205.5653219999999
 21
327.53523999999999
 31
0.0
  0
ARC
  5
986A
  8
DANMEN
  6
CONTINUOUS
 10
205.06532200000001
 20
305.03523999999987
 30
0.0
 40
0.5
 50
270.0
 51
0.0
  0
ARC
  5
986C
  8
DANMEN
  6
CONTINUOUS
 10
204.415322
 20
305.03523999999987
 30
0.0
 40
0.5
 50
180.0
 51
270.0
  0
LINE
  5
986D
  8
DANMEN
  6
CONTINUOUS
 10
204.415322
 20
304.53523999999999
 30
0.0
 11
205.06532200000001
 21
304.53523999999999
 31
0.0
  0
LINE
  5
9870
  8
DANMEN
  6
CONTINUOUS
 10
221.665322
 20
306.59679299999988
 30
0.0
 11
221.665322
 21
327.53523999999999
 31
0.0
  0
LINE
  5
9871
  8
DANMEN
  6
CONTINUOUS
 10
224.165322
 20
306.59679299999988
 30
0.0
 11
224.165322
 21
327.53523999999999
 31
0.0
  0
ARC
  5
9872
  8
DANMEN
  6
CONTINUOUS
 10
223.27493399999989
 20
305.03523999999987
 30
0.0
 40
0.5
 50
270.0
 51
345.96375699999987
  0
ARC
  5
9875
  8
DANMEN
  6
CONTINUOUS
 10
222.55571
 20
305.03523999999987
 30
0.0
 40
0.5
 50
194.03624300000001
 51
270.0
  0
ARC
  5
9877
  8
DANMEN
  6
CONTINUOUS
 10
222.165322
 20
306.59679299999988
 30
0.0
 40
0.5
 50
180.0
 51
194.03624300000001
  0
LINE
  5
9878
  8
DANMEN
  6
CONTINUOUS
 10
221.68025099999991
 20
306.475525
 30
0.0
 11
222.070639
 21
304.91397199999989
 31
0.0
  0
LINE
  5
9879
  8
DANMEN
  6
CONTINUOUS
 10
222.55571
 20
304.53523999999999
 30
0.0
 11
223.27493399999989
 21
304.53523999999999
 31
0.0
  0
ARC
  5
987B
  8
DANMEN
  6
CONTINUOUS
 10
223.665322
 20
306.59679299999988
 30
0.0
 40
0.5
 50
345.96375699999987
 51
0.0
  0
LINE
  5
987C
  8
DANMEN
  6
CONTINUOUS
 10
223.76000499999989
 20
304.91397199999989
 30
0.0
 11
224.15039299999989
 21
306.475525
 31
0.0
  0
ARC
  5
987D
  8
DANMEN
  6
CONTINUOUS
 10
222.61532199999999
 20
330.18523999999991
 30
0.0
 40
1.0
 50
270.0
 51
0.0
  0
ARC
  5
9880
  8
DANMEN
  6
CONTINUOUS
 10
231.415322
 20
328.03523999999987
 30
0.0
 40
0.5
 50
270.0
 51
0.0
  0
LINE
  5
9881
  8
DANMEN
  6
CONTINUOUS
 10
224.165322
 20
327.53523999999999
 30
0.0
 11
231.415322
 21
327.53523999999999
 31
0.0
  0
LINE
  5
9882
  8
DANMEN
  6
CONTINUOUS
 10
227.71532199999999
 20
329.23523999999992
 30
0.0
 11
226.11532199999999
 21
329.23523999999992
 31
0.0
  0
LINE
  5
9887
  8
DANMEN
  6
CONTINUOUS
 10
230.415322
 20
328.33524
 30
0.0
 11
231.915322
 21
328.33524
 31
0.0
  0
LINE
  5
9888
  8
DANMEN
  6
CONTINUOUS
 10
231.915322
 20
328.03523999999987
 30
0.0
 11
231.915322
 21
328.33524
 31
0.0
  0
ARC
  5
988A
  8
DANMEN
  6
CONTINUOUS
 10
204.415322
 20
339.07863300000002
 30
0.0
 40
0.5
 50
95.194429999999997
 51
180.0
  0
ARC
  5
988C
  8
DANMEN
  6
CONTINUOUS
 10
225.61532199999999
 20
331.56554599999993
 30
0.0
 40
2.0
 50
128.29347699999991
 51
180.0
  0
LINE
  5
988D
  8
DANMEN
  6
CONTINUOUS
 10
237.915322
 20
333.13524000000001
 30
0.0
 11
228.3153219999999
 21
333.13524000000001
 31
0.0
  0
LINE
  5
988E
  8
DANMEN
  6
CONTINUOUS
 10
225.81532200000001
 20
332.83523999999989
 30
0.0
 11
225.81532200000001
 21
332.57217200000002
 31
0.0
  0
ARC
  5
988F
  8
DANMEN
  6
CONTINUOUS
 10
226.11532199999999
 20
331.48130099999992
 30
0.0
 40
1.0
 50
114.6243179999999
 51
180.0
  0
ARC
  5
9890
  8
DANMEN
  6
CONTINUOUS
 10
225.61532199999999
 20
332.57217200000002
 30
0.0
 40
0.2
 50
294.62431800000002
 51
0.0
  0
LINE
  5
9891
  8
DANMEN
  6
CONTINUOUS
 10
225.11532199999999
 20
331.48130099999992
 30
0.0
 11
225.11532199999999
 21
330.23523999999992
 31
0.0
  0
LINE
  5
9894
  8
DANMEN
  6
CONTINUOUS
 10
225.515322
 20
333.13524000000001
 30
0.0
 11
224.37594300000001
 21
333.13524000000001
 31
0.0
  0
ARC
  5
9895
  8
DANMEN
  6
CONTINUOUS
 10
225.515322
 20
332.83523999999989
 30
0.0
 40
0.3
 50
0.0
 51
90.0
  0
ARC
  5
9897
  8
DANMEN
  6
CONTINUOUS
 10
228.21532199999999
 20
332.57217200000002
 30
0.0
 40
0.2
 50
180.0
 51
245.3756819999999
  0
ARC
  5
9898
  8
DANMEN
  6
CONTINUOUS
 10
227.71532199999999
 20
331.48130099999992
 30
0.0
 40
1.0
 50
0.0
 51
65.375681999999983
  0
LINE
  5
9899
  8
DANMEN
  6
CONTINUOUS
 10
228.015322
 20
332.83523999999989
 30
0.0
 11
228.015322
 21
332.57217200000002
 31
0.0
  0
LINE
  5
989A
  8
DANMEN
  6
CONTINUOUS
 10
228.7153219999999
 20
331.48130099999992
 30
0.0
 11
228.7153219999999
 21
330.23523999999992
 31
0.0
  0
ARC
  5
989B
  8
DANMEN
  6
CONTINUOUS
 10
228.3153219999999
 20
332.83523999999989
 30
0.0
 40
0.3
 50
90.0
 51
180.0
  0
LINE
  5
989C
  8
DANMEN
  6
CONTINUOUS
 10
238.915322
 20
334.48523999999992
 30
0.0
 11
238.915322
 21
334.13524000000001
 31
0.0
  0
ARC
  5
989D
  8
DANMEN
  6
CONTINUOUS
 10
237.915322
 20
334.13524000000001
 30
0.0
 40
1.0
 50
270.0
 51
0.0
  0
LINE
  5
98A0
  8
DANMEN
  6
CONTINUOUS
 10
303.915322
 20
354.53524499999997
 30
0.0
 11
303.915322
 21
262.03523999999987
 31
0.0
  0
LINE
  5
98A1
  8
DANMEN
  6
CONTINUOUS
 10
272.16532199999989
 20
327.53523999999999
 30
0.0
 11
274.665322
 21
330.53523999999987
 31
0.0
  0
LINE
  5
98A2
  8
DANMEN
  6
CONTINUOUS
 10
260.56532199999998
 20
342.88525099999998
 30
0.0
 11
260.56532199999998
 21
329.18523999999991
 31
0.0
  0
LINE
  5
98A3
  8
DANMEN
  6
CONTINUOUS
 10
302.26532200000003
 20
305.03523999999987
 30
0.0
 11
302.26532200000003
 21
330.53523999999987
 31
0.0
  0
LINE
  5
98A4
  8
DANMEN
  6
CONTINUOUS
 10
253.415322
 20
331.48523999999992
 30
0.0
 11
253.415322
 21
328.33524
 31
0.0
  0
LINE
  5
98A5
  8
DANMEN
  6
CONTINUOUS
 10
303.915322
 20
305.03523999999987
 30
0.0
 11
303.915322
 21
344.03523999999999
 31
0.0
  0
LINE
  5
98A6
  8
DANMEN
  6
CONTINUOUS
 10
255.06532200000001
 20
331.6352399999999
 30
0.0
 11
255.06532200000001
 21
329.18523999999991
 31
0.0
  0
LINE
  5
98A7
  8
DANMEN
  6
CONTINUOUS
 10
258.915322
 20
342.87849799999992
 30
0.0
 11
258.915322
 21
329.18523999999991
 31
0.0
  0
LINE
  5
98A8
  8
DANMEN
  6
CONTINUOUS
 10
264.61532199999999
 20
333.06554599999998
 30
0.0
 11
264.61532199999999
 21
330.18523999999991
 31
0.0
  0
LINE
  5
98A9
  8
DANMEN
  6
CONTINUOUS
 10
299.915322
 20
304.53523999999999
 30
0.0
 11
299.915322
 21
262.03523999999987
 31
0.0
  0
LINE
  5
98AA
  8
DANMEN
  6
CONTINUOUS
 10
302.2653279999999
 20
304.53523999999999
 30
0.0
 11
302.2653279999999
 21
262.03523999999987
 31
0.0
  0
LINE
  5
98AB
  8
DANMEN
  6
CONTINUOUS
 10
272.16532199999989
 20
306.59679299999988
 30
0.0
 11
272.16532199999989
 21
327.53523999999999
 31
0.0
  0
LINE
  5
98AC
  8
DANMEN
  6
CONTINUOUS
 10
269.66532199999989
 20
306.59679299999988
 30
0.0
 11
269.66532199999989
 21
327.53523999999999
 31
0.0
  0
LINE
  5
98AD
  8
DANMEN
  6
CONTINUOUS
 10
271.27493399999992
 20
304.53523999999999
 30
0.0
 11
270.55570999999998
 21
304.53523999999999
 31
0.0
  0
LINE
  5
98AE
  8
DANMEN
  6
CONTINUOUS
 10
272.15039300000001
 20
306.475525
 30
0.0
 11
271.76000499999992
 21
304.91397199999989
 31
0.0
  0
LINE
  5
98AF
  8
DANMEN
  6
CONTINUOUS
 10
270.07063900000003
 20
304.91397199999989
 30
0.0
 11
269.68025099999988
 21
306.475525
 31
0.0
  0
ARC
  5
98B0
  8
DANMEN
  6
CONTINUOUS
 10
271.66532199999989
 20
306.59679299999988
 30
0.0
 40
0.5
 50
345.96375699999987
 51
0.0
  0
ARC
  5
98B2
  8
DANMEN
  6
CONTINUOUS
 10
271.27493399999992
 20
305.03523999999987
 30
0.0
 40
0.5
 50
270.0
 51
345.96375699999987
  0
ARC
  5
98B4
  8
DANMEN
  6
CONTINUOUS
 10
270.55570999999998
 20
305.03523999999987
 30
0.0
 40
0.5
 50
194.03624300000001
 51
270.0
  0
ARC
  5
98B6
  8
DANMEN
  6
CONTINUOUS
 10
270.165322
 20
306.59679299999988
 30
0.0
 40
0.5
 50
180.0
 51
194.03624300000001
  0
LINE
  5
98B8
  8
DANMEN
  6
CONTINUOUS
 10
252.415322
 20
327.53523999999999
 30
0.0
 11
269.66532199999989
 21
327.53523999999999
 31
0.0
  0
LINE
  5
98B9
  8
DANMEN
  6
CONTINUOUS
 10
255.06532200000001
 20
329.18523999999991
 30
0.0
 11
258.915322
 21
329.18523999999991
 31
0.0
  0
LINE
  5
98BA
  8
DANMEN
  6
CONTINUOUS
 10
251.915322
 20
328.33524
 30
0.0
 11
253.415322
 21
328.33524
 31
0.0
  0
ARC
  5
98BC
  8
DANMEN
  6
CONTINUOUS
 10
252.415322
 20
328.03523999999987
 30
0.0
 40
0.5
 50
180.0
 51
270.0
  0
LINE
  5
98BE
  8
DANMEN
  6
CONTINUOUS
 10
251.915322
 20
328.33524
 30
0.0
 11
251.915322
 21
328.03523999999987
 31
0.0
  0
ARC
  5
98C1
  8
DANMEN
  6
CONTINUOUS
 10
263.61532199999999
 20
330.18523999999991
 30
0.0
 40
1.0
 50
270.0
 51
0.0
  0
LINE
  5
98C2
  8
DANMEN
  6
CONTINUOUS
 10
260.56532199999998
 20
329.18523999999991
 30
0.0
 11
263.61532199999999
 21
329.18523999999991
 31
0.0
  0
LINE
  5
98C8
  8
DANMEN
  6
CONTINUOUS
 10
299.915322
 20
304.53523999999999
 30
0.0
 11
303.915322
 21
304.53523999999999
 31
0.0
  0
ARC
  5
98CA
  8
DANMEN
  6
CONTINUOUS
 10
302.76532200000003
 20
305.03523999999987
 30
0.0
 40
0.5
 50
180.0
 51
270.0
  0
ARC
  5
98CC
  8
DANMEN
  6
CONTINUOUS
 10
303.415322
 20
305.03523999999987
 30
0.0
 40
0.5
 50
270.0
 51
0.0
  0
LINE
  5
98CD
  8
DANMEN
  6
CONTINUOUS
 10
302.76532200000003
 20
304.53523999999999
 30
0.0
 11
303.415322
 21
304.53523999999999
 31
0.0
  0
LINE
  5
98CE
  8
DANMEN
  6
CONTINUOUS
 10
359.13421699999992
 20
267.15054399999991
 30
0.0
 11
370.484217
 21
267.15054399999991
 31
0.0
  0
ARC
  5
98CF
  8
DANMEN
  6
CONTINUOUS
 10
357.984217
 20
268.300544
 30
0.0
 40
0.5
 50
89.999981999999974
 51
180.0000189999999
  0
LINE
  5
98D4
  8
DANMEN
  6
CONTINUOUS
 10
260.06532199999998
 20
354.53524499999997
 30
0.0
 11
303.915322
 21
354.53524499999997
 31
0.0
  0
LINE
  5
98D5
  8
DANMEN
  6
CONTINUOUS
 10
272.21293300000002
 20
332.18523999999991
 30
0.0
 11
286.61531599999989
 21
332.18523999999991
 31
0.0
  0
LINE
  5
98D6
  8
DANMEN
  6
CONTINUOUS
 10
260.56532199999998
 20
354.03524499999997
 30
0.0
 11
260.56532199999998
 21
344.53524499999997
 31
0.0
  0
LINE
  5
98D7
  8
DANMEN
  6
CONTINUOUS
 10
258.915322
 20
354.03524499999997
 30
0.0
 11
258.915322
 21
344.53524099999998
 31
0.0
  0
LINE
  5
98D8
  8
DANMEN
  6
CONTINUOUS
 10
253.5653219999999
 20
333.13524000000001
 30
0.0
 11
247.915322
 21
333.13524000000001
 31
0.0
  0
LINE
  5
98DA
  8
DANMEN
  6
CONTINUOUS
 10
246.915322
 20
334.48523999999992
 30
0.0
 11
246.915322
 21
334.13524000000001
 31
0.0
  0
ARC
  5
98DB
  8
DANMEN
  6
CONTINUOUS
 10
247.915322
 20
334.13524000000001
 30
0.0
 40
1.0
 50
180.0
 51
270.0
  0
ARC
  5
98DF
  8
DANMEN
  6
CONTINUOUS
 10
253.5653219999999
 20
331.6352399999999
 30
0.0
 40
1.5
 50
0.0
 51
90.0
  0
ARC
  5
98E1
  8
DANMEN
  6
CONTINUOUS
 10
266.61532199999999
 20
333.06554599999998
 30
0.0
 40
2.0
 50
128.29347699999991
 51
180.0
  0
ARC
  5
98E2
  8
DANMEN
  6
CONTINUOUS
 10
268.71532200000001
 20
331.73523999999992
 30
0.0
 40
1.0
 50
270.0
 51
0.0
  0
ARC
  5
98E4
  8
DANMEN
  6
CONTINUOUS
 10
267.11532199999999
 20
331.73523999999992
 30
0.0
 40
1.0
 50
180.0
 51
270.0
  0
ARC
  5
98E5
  8
DANMEN
  6
CONTINUOUS
 10
266.51532200000003
 20
334.33524
 30
0.0
 40
0.3
 50
0.0
 51
90.0
  0
LINE
  5
98E6
  8
DANMEN
  6
CONTINUOUS
 10
266.51532200000003
 20
334.63524000000001
 30
0.0
 11
265.37594300000001
 21
334.63524000000001
 31
0.0
  0
LINE
  5
98E9
  8
DANMEN
  6
CONTINUOUS
 10
266.11532199999999
 20
332.98130099999992
 30
0.0
 11
266.11532199999999
 21
331.73523999999992
 31
0.0
  0
ARC
  5
98EA
  8
DANMEN
  6
CONTINUOUS
 10
266.61532199999999
 20
334.07217200000002
 30
0.0
 40
0.2
 50
294.62431800000002
 51
0.0
  0
ARC
  5
98EB
  8
DANMEN
  6
CONTINUOUS
 10
267.11532199999999
 20
332.98130099999992
 30
0.0
 40
1.0
 50
114.6243179999999
 51
180.0
  0
LINE
  5
98EC
  8
DANMEN
  6
CONTINUOUS
 10
266.81532199999998
 20
334.33524
 30
0.0
 11
266.81532199999998
 21
334.07217200000002
 31
0.0
  0
LINE
  5
98ED
  8
DANMEN
  6
CONTINUOUS
 10
268.71532200000001
 20
330.73523999999992
 30
0.0
 11
267.11532199999999
 21
330.73523999999992
 31
0.0
  0
ARC
  5
98EF
  8
DANMEN
  6
CONTINUOUS
 10
272.21293300000002
 20
333.18523999999991
 30
0.0
 40
1.0
 50
182.2865909999999
 51
270.0
  0
ARC
  5
98F0
  8
DANMEN
  6
CONTINUOUS
 10
269.31532199999998
 20
334.33524
 30
0.0
 40
0.3
 50
90.0
 51
180.0
  0
LINE
  5
98F1
  8
DANMEN
  6
CONTINUOUS
 10
270.454701
 20
334.63524000000001
 30
0.0
 11
269.31532199999998
 21
334.63524000000001
 31
0.0
  0
LINE
  5
98F2
  8
DANMEN
  6
CONTINUOUS
 10
269.71532200000001
 20
332.98130099999992
 30
0.0
 11
269.71532200000001
 21
331.73523999999992
 31
0.0
  0
LINE
  5
98F3
  8
DANMEN
  6
CONTINUOUS
 10
269.01532200000003
 20
334.33524
 30
0.0
 11
269.01532200000003
 21
334.07217200000002
 31
0.0
  0
ARC
  5
98F4
  8
DANMEN
  6
CONTINUOUS
 10
268.71532200000001
 20
332.98130099999992
 30
0.0
 40
1.0
 50
0.0
 51
65.375681999999983
  0
ARC
  5
98F5
  8
DANMEN
  6
CONTINUOUS
 10
269.21532200000001
 20
334.07217200000002
 30
0.0
 40
0.2
 50
180.0
 51
245.3756819999999
  0
ARC
  5
98F6
  8
DANMEN
  6
CONTINUOUS
 10
269.21532200000001
 20
333.06554599999998
 30
0.0
 40
2.0
 50
2.286591
 51
51.706522999999997
  0
LINE
  5
98F7
  8
DANMEN
  6
CONTINUOUS
 10
262.915322
 20
342.88525099999998
 30
0.0
 11
260.56532199999998
 21
342.88525099999998
 31
0.0
  0
LINE
  5
98F8
  8
DANMEN
  6
CONTINUOUS
 10
262.915322
 20
344.53524499999997
 30
0.0
 11
260.56532199999998
 21
344.53524499999997
 31
0.0
  0
ARC
  5
98FF
  8
DANMEN
  6
CONTINUOUS
 10
262.915322
 20
344.03524499999997
 30
0.0
 40
0.5
 50
0.0
 51
89.999981999999974
  0
ARC
  5
9900
  8
DANMEN
  6
CONTINUOUS
 10
262.915322
 20
343.38525099999993
 30
0.0
 40
0.5
 50
270.0000179999999
 51
0.0
  0
LINE
  5
9901
  8
DANMEN
  6
CONTINUOUS
 10
263.41532199999989
 20
344.03524499999997
 30
0.0
 11
263.41532199999989
 21
343.38525099999993
 31
0.0
  0
ARC
  5
9902
  8
DANMEN
  6
CONTINUOUS
 10
260.06532199999998
 20
354.03524499999997
 30
0.0
 40
0.5
 50
0.0
 51
89.999981999999974
  0
ARC
  5
9905
  8
DANMEN
  6
CONTINUOUS
 10
259.41532199999989
 20
354.03524499999997
 30
0.0
 40
0.5
 50
89.999981999999974
 51
180.0000189999999
  0
LINE
  5
9906
  8
DANMEN
  6
CONTINUOUS
 10
260.06532199999998
 20
354.53524499999997
 30
0.0
 11
259.41532199999989
 21
354.53524499999997
 31
0.0
  0
LINE
  5
9907
  8
DANMEN
  6
CONTINUOUS
 10
289.51531599999998
 20
336.13524000000001
 30
0.0
 11
288.37593700000002
 21
336.13524000000001
 31
0.0
  0
ARC
  5
9908
  8
DANMEN
  6
CONTINUOUS
 10
290.11531600000001
 20
333.23523999999992
 30
0.0
 40
1.0
 50
180.0
 51
270.0
  0
ARC
  5
9909
  8
DANMEN
  6
CONTINUOUS
 10
290.11531600000001
 20
334.48130099999992
 30
0.0
 40
1.0
 50
114.6243179999999
 51
180.0
  0
LINE
  5
990A
  8
DANMEN
  6
CONTINUOUS
 10
274.665322
 20
330.53523999999987
 30
0.0
 11
302.26532200000003
 21
330.53523999999987
 31
0.0
  0
ARC
  5
990C
  8
DANMEN
  6
CONTINUOUS
 10
289.61531600000001
 20
334.56554599999993
 30
0.0
 40
2.0
 50
128.29347699999991
 51
180.0
  0
LINE
  5
990E
  8
DANMEN
  6
CONTINUOUS
 10
289.11531599999989
 20
334.48130099999992
 30
0.0
 11
289.11531599999989
 21
333.23523999999992
 31
0.0
  0
LINE
  5
990F
  8
DANMEN
  6
CONTINUOUS
 10
287.61531600000001
 20
334.56554599999993
 30
0.0
 11
287.61531600000001
 21
333.18523999999991
 31
0.0
  0
ARC
  5
9910
  8
DANMEN
  6
CONTINUOUS
 10
286.61531599999989
 20
333.18523999999991
 30
0.0
 40
1.0
 50
270.0
 51
0.0
  0
LINE
  5
9912
  8
DANMEN
  6
CONTINUOUS
 10
302.26532200000003
 20
332.18523999999991
 30
0.0
 11
302.26532200000003
 21
342.88524000000001
 31
0.0
  0
LINE
  5
9913
  8
DANMEN
  6
CONTINUOUS
 10
302.26532200000003
 20
332.18523999999991
 30
0.0
 11
295.21531599999997
 21
332.18523999999991
 31
0.0
  0
ARC
  5
9914
  8
DANMEN
  6
CONTINUOUS
 10
292.315316
 20
335.83524
 30
0.0
 40
0.3
 50
90.0
 51
180.0
  0
ARC
  5
9915
  8
DANMEN
  6
CONTINUOUS
 10
289.51531599999998
 20
335.83524
 30
0.0
 40
0.3
 50
0.0
 51
90.0
  0
ARC
  5
9916
  8
DANMEN
  6
CONTINUOUS
 10
292.21531599999997
 20
334.56554599999993
 30
0.0
 40
2.0
 50
0.0
 51
51.706522999999997
  0
LINE
  5
9919
  8
DANMEN
  6
CONTINUOUS
 10
291.71531599999997
 20
332.23523999999992
 30
0.0
 11
290.11531600000001
 21
332.23523999999992
 31
0.0
  0
LINE
  5
991A
  8
DANMEN
  6
CONTINUOUS
 10
292.71531599999997
 20
334.48130099999992
 30
0.0
 11
292.71531599999997
 21
333.23523999999992
 31
0.0
  0
ARC
  5
991B
  8
DANMEN
  6
CONTINUOUS
 10
291.71531599999997
 20
333.23523999999992
 30
0.0
 40
1.0
 50
270.0
 51
0.0
  0
LINE
  5
991C
  8
DANMEN
  6
CONTINUOUS
 10
292.01531599999998
 20
335.83524
 30
0.0
 11
292.01531599999998
 21
335.57217200000002
 31
0.0
  0
ARC
  5
991D
  8
DANMEN
  6
CONTINUOUS
 10
291.71531599999997
 20
334.48130099999992
 30
0.0
 40
1.0
 50
0.0
 51
65.375681999999983
  0
ARC
  5
991E
  8
DANMEN
  6
CONTINUOUS
 10
292.21531599999997
 20
335.57217200000002
 30
0.0
 40
0.2
 50
180.0
 51
245.3756819999999
  0
ARC
  5
991F
  8
DANMEN
  6
CONTINUOUS
 10
289.61531600000001
 20
335.57217200000002
 30
0.0
 40
0.2
 50
294.62431800000002
 51
0.0
  0
LINE
  5
9920
  8
DANMEN
  6
CONTINUOUS
 10
289.815316
 20
335.83524
 30
0.0
 11
289.815316
 21
335.57217200000002
 31
0.0
  0
LINE
  5
9921
  8
DANMEN
  6
CONTINUOUS
 10
294.21531599999997
 20
334.56554599999993
 30
0.0
 11
294.21531599999997
 21
333.18523999999991
 31
0.0
  0
ARC
  5
9922
  8
DANMEN
  6
CONTINUOUS
 10
295.21531599999997
 20
333.18523999999991
 30
0.0
 40
1.0
 50
180.0
 51
270.0
  0
LINE
  5
9924
  8
DANMEN
  6
CONTINUOUS
 10
293.45469500000002
 20
336.13524000000001
 30
0.0
 11
292.315316
 21
336.13524000000001
 31
0.0
  0
LINE
  5
9927
  8
DANMEN
  6
CONTINUOUS
 10
295.915322
 20
342.88524000000001
 30
0.0
 11
302.26532200000003
 21
342.88524000000001
 31
0.0
  0
LINE
  5
9928
  8
DANMEN
  6
CONTINUOUS
 10
295.915322
 20
344.53523999999987
 30
0.0
 11
303.415322
 21
344.53523999999987
 31
0.0
  0
ARC
  5
992A
  8
DANMEN
  6
CONTINUOUS
 10
295.915322
 20
343.38524000000001
 30
0.0
 40
0.5
 50
180.0
 51
270.0
  0
ARC
  5
992C
  8
DANMEN
  6
CONTINUOUS
 10
295.915322
 20
344.03523999999999
 30
0.0
 40
0.5
 50
90.0
 51
180.0
  0
LINE
  5
992D
  8
DANMEN
  6
CONTINUOUS
 10
295.415322
 20
343.38524000000001
 30
0.0
 11
295.415322
 21
344.03523999999999
 31
0.0
  0
ARC
  5
9930
  8
DANMEN
  6
CONTINUOUS
 10
303.415322
 20
344.03523999999999
 30
0.0
 40
0.5
 50
0.0
 51
90.0
  0
LINE
  5
9931
  8
SUNPO
  6
CONTINUOUS
 10
333.915322
 20
250.535034
 30
0.0
 11
333.915322
 21
216.5352399999999
 31
0.0
  0
LINE
  5
9932
  8
DANMEN
  6
CONTINUOUS
 10
372.484217
 20
247.300544
 30
0.0
 11
372.484217
 21
218.40054399999991
 31
0.0
  0
LINE
  5
9933
  8
SUNPO
  6
BYBLOCK
 10
564.48421699999994
 20
268.80054399999989
 30
0.0
 11
564.48421699999994
 21
213.800544
 31
0.0
  0
LINE
  5
9934
  8
SUNPO
  6
BYBLOCK
 10
452.484217
 20
168.80054399999989
 30
0.0
 11
452.484217
 21
268.80054399999989
 31
0.0
  0
LINE
  5
9935
  8
SUNPO
  6
BYBLOCK
 10
554.48421699999994
 20
215.300544
 30
0.0
 11
554.48421699999994
 21
278.800544
 31
0.0
  0
LINE
  5
9936
  8
SUNPO
  6
BYBLOCK
 10
347.484217
 20
215.300544
 30
0.0
 11
347.484217
 21
278.800544
 31
0.0
  0
LINE
  5
9937
  8
SUNPO
  6
BYBLOCK
 10
200.91532199999989
 20
168.0352399999999
 30
0.0
 11
200.91532199999989
 21
259.03523999999987
 31
0.0
  0
LINE
  5
9938
  8
DANMEN
  6
CONTINUOUS
 10
531.48421699999994
 20
267.15054399999991
 30
0.0
 11
531.48421699999994
 21
216.80054399999989
 31
0.0
  0
LINE
  5
9939
  8
DANMEN
  6
CONTINUOUS
 10
542.83421699999985
 20
267.15054399999991
 30
0.0
 11
542.83421699999985
 21
213.800544
 31
0.0
  0
LINE
  5
993A
  8
DANMEN
  6
CONTINUOUS
 10
544.48421699999994
 20
268.300544
 30
0.0
 11
544.48421699999994
 21
213.800544
 31
0.0
  0
LINE
  5
993B
  8
DANMEN
  6
CONTINUOUS
 10
529.48421699999994
 20
267.70054399999992
 30
0.0
 11
529.48421699999994
 21
220.80054399999989
 31
0.0
  0
LINE
  5
993C
  8
SUNPO
  6
CONTINUOUS
 10
463.48421699999989
 20
148.800544
 30
0.0
 11
514.48421699999994
 21
148.800544
 31
0.0
  0
LINE
  5
993E
  8
SUNPO
  6
BYBLOCK
 10
258.915322
 20
136.5352399999999
 30
0.0
 11
203.915322
 21
136.5352399999999
 31
0.0
  0
LINE
  5
993F
  8
SUNPO
  6
BYBLOCK
 10
257.41532199999989
 20
146.5352399999999
 30
0.0
 11
193.915322
 21
146.5352399999999
 31
0.0
  0
LINE
  5
9940
  8
DANMEN
  6
CONTINUOUS
 10
452.484217
 20
200.30054399999989
 30
0.0
 11
518.95282699999996
 21
200.30054399999989
 31
0.0
  0
LINE
  5
9941
  8
DANMEN
  6
CONTINUOUS
 10
452.484217
 20
203.300544
 30
0.0
 11
529.48421699999994
 21
203.300544
 31
0.0
  0
LINE
  5
9942
  8
DANMEN
  6
CONTINUOUS
 10
452.484217
 20
233.30054399999989
 30
0.0
 11
529.48421699999994
 21
233.30054399999989
 31
0.0
  0
LINE
  5
9943
  8
DANMEN
  6
CONTINUOUS
 10
452.484217
 20
220.80054399999989
 30
0.0
 11
529.48421699999994
 21
220.80054399999989
 31
0.0
  0
LINE
  5
9944
  8
DANMEN
  6
CONTINUOUS
 10
452.484217
 20
210.80054399999989
 30
0.0
 11
529.48421699999994
 21
210.80054399999989
 31
0.0
  0
LINE
  5
9945
  8
DANMEN
  6
CONTINUOUS
 10
452.484217
 20
168.80054399999989
 30
0.0
 11
514.98421699999994
 21
168.80054399999989
 31
0.0
  0
LINE
  5
9946
  8
DANMEN
  6
CONTINUOUS
 10
452.484217
 20
172.800544
 30
0.0
 11
516.98421699999994
 21
172.800544
 31
0.0
  0
LINE
  5
9947
  8
DANMEN
  6
CONTINUOUS
 10
372.484217
 20
233.30054399999989
 30
0.0
 11
449.484217
 21
233.30054399999989
 31
0.0
  0
LINE
  5
9948
  8
DANMEN
  6
CONTINUOUS
 10
384.984217
 20
220.80054399999989
 30
0.0
 11
449.484217
 21
220.80054399999989
 31
0.0
  0
LINE
  5
9949
  8
DANMEN
  6
CONTINUOUS
 10
372.484217
 20
203.300544
 30
0.0
 11
449.484217
 21
203.300544
 31
0.0
  0
LINE
  5
994A
  8
DANMEN
  6
CONTINUOUS
 10
372.484217
 20
200.30054399999989
 30
0.0
 11
449.484217
 21
200.30054399999989
 31
0.0
  0
LINE
  5
994B
  8
DANMEN
  6
CONTINUOUS
 10
372.484217
 20
172.800544
 30
0.0
 11
449.484217
 21
172.800544
 31
0.0
  0
LINE
  5
994C
  8
DANMEN
  6
CONTINUOUS
 10
386.984217
 20
168.80054399999989
 30
0.0
 11
449.484217
 21
168.80054399999989
 31
0.0
  0
LINE
  5
994D
  8
DANMEN
  6
CONTINUOUS
 10
372.484217
 20
210.80054399999989
 30
0.0
 11
449.484217
 21
210.80054399999989
 31
0.0
  0
LINE
  5
994E
  8
DANMEN
  6
CONTINUOUS
 10
372.484217
 20
217.300544
 30
0.0
 11
372.484217
 21
169.900544
 31
0.0
  0
LINE
  5
994F
  8
DANMEN
  6
CONTINUOUS
 10
374.484217
 20
170.45054400000001
 30
0.0
 11
386.984217
 21
170.45054400000001
 31
0.0
  0
LINE
  5
9953
  8
DANMEN
  6
CONTINUOUS
 10
374.484217
 20
170.45054400000001
 30
0.0
 11
374.484217
 21
169.900544
 31
0.0
  0
LINE
  5
9954
  8
DANMEN
  6
CONTINUOUS
 10
372.484217
 20
169.900544
 30
0.0
 11
374.484217
 21
169.900544
 31
0.0
  0
ARC
  5
9956
  8
DANMEN
  6
CONTINUOUS
 10
386.984217
 20
169.300544
 30
0.0
 40
0.5
 50
270.0
 51
0.0
  0
ARC
  5
9958
  8
DANMEN
  6
CONTINUOUS
 10
386.984217
 20
169.95054400000001
 30
0.0
 40
0.5
 50
0.0
 51
90.0
  0
LINE
  5
9959
  8
DANMEN
  6
CONTINUOUS
 10
387.48421699999989
 20
169.95054400000001
 30
0.0
 11
387.48421699999989
 21
169.300544
 31
0.0
  0
LINE
  5
995A
  8
DANMEN
  6
CONTINUOUS
 10
377.59493099999997
 20
221.6005439999999
 30
0.0
 11
374.30997200000002
 21
228.129166
 31
0.0
  0
LINE
  5
995B
  8
DANMEN
  6
CONTINUOUS
 10
377.21384499999988
 20
220.80054399999989
 30
0.0
 11
373.89064000000002
 21
227.40517700000001
 31
0.0
  0
LINE
  5
995C
  8
DANMEN
  6
CONTINUOUS
 10
378.484217
 20
218.40054399999991
 30
0.0
 11
384.484217
 21
218.40054399999991
 31
0.0
  0
ARC
  5
995D
  8
DANMEN
  6
CONTINUOUS
 10
379.18421699999988
 20
220.300544
 30
0.0
 40
0.5
 50
0.0
 51
90.0
  0
LINE
  5
995E
  8
DANMEN
  6
CONTINUOUS
 10
378.484217
 20
220.00054399999991
 30
0.0
 11
379.68421699999999
 21
220.00054399999991
 31
0.0
  0
LINE
  5
995F
  8
DANMEN
  6
CONTINUOUS
 10
372.484217
 20
217.300544
 30
0.0
 11
384.984217
 21
217.300544
 31
0.0
  0
LINE
  5
9960
  8
DANMEN
  6
CONTINUOUS
 10
377.59493099999997
 20
221.6005439999999
 30
0.0
 11
380.33422100000001
 21
221.6005439999999
 31
0.0
  0
LINE
  5
9961
  8
DANMEN
  6
CONTINUOUS
 10
377.21384499999988
 20
220.80054399999989
 30
0.0
 11
379.83422100000001
 21
220.80054399999989
 31
0.0
  0
LINE
  5
9962
  8
DANMEN
  6
CONTINUOUS
 10
378.83422000000002
 20
218.80054399999989
 30
0.0
 11
379.83422100000001
 21
218.80054399999989
 31
0.0
  0
LINE
  5
9963
  8
DANMEN
  6
CONTINUOUS
 10
378.83422000000002
 20
219.800544
 30
0.0
 11
379.83422100000001
 21
219.800544
 31
0.0
  0
LINE
  5
9964
  8
DANMEN
  6
CONTINUOUS
 10
378.484217
 20
220.00054399999991
 30
0.0
 11
378.484217
 21
218.40054399999991
 31
0.0
  0
LINE
  5
9965
  8
DANMEN
  6
CONTINUOUS
 10
377.48421699999989
 20
220.300544
 30
0.0
 11
377.48421699999989
 21
218.40054399999991
 31
0.0
  0
LINE
  5
9966
  8
DANMEN
  6
CONTINUOUS
 10
372.484217
 20
218.40054399999991
 30
0.0
 11
377.48421699999989
 21
218.40054399999991
 31
0.0
  0
ARC
  5
996D
  8
DANMEN
  6
CONTINUOUS
 10
378.83422000000002
 20
219.6005439999999
 30
0.0
 40
0.2
 50
89.999981999999974
 51
180.0000189999999
  0
ARC
  5
996F
  8
DANMEN
  6
CONTINUOUS
 10
378.83422000000002
 20
219.00054399999991
 30
0.0
 40
0.2
 50
180.0000189999999
 51
270.000001
  0
LINE
  5
9971
  8
DANMEN
  6
CONTINUOUS
 10
378.63422099999991
 20
219.6005439999999
 30
0.0
 11
378.63422099999991
 21
219.00054399999991
 31
0.0
  0
LINE
  5
9972
  8
DANMEN
  6
CONTINUOUS
 10
372.484217
 20
220.80054399999989
 30
0.0
 11
377.984217
 21
220.80054399999989
 31
0.0
  0
ARC
  5
9975
  8
DANMEN
  6
CONTINUOUS
 10
377.984217
 20
220.300544
 30
0.0
 40
0.5
 50
90.0
 51
180.0
  0
LINE
  5
9976
  8
DANMEN
  6
CONTINUOUS
 10
377.984217
 20
220.80054399999989
 30
0.0
 11
379.18421699999988
 21
220.80054399999989
 31
0.0
  0
LINE
  5
9979
  8
DANMEN
  6
CONTINUOUS
 10
384.484217
 20
220.00054399999991
 30
0.0
 11
384.484217
 21
218.40054399999991
 31
0.0
  0
LINE
  5
997A
  8
DANMEN
  6
CONTINUOUS
 10
385.48421699999989
 20
220.300544
 30
0.0
 11
385.48421699999989
 21
217.800544
 31
0.0
  0
LINE
  5
997B
  8
DANMEN
  6
CONTINUOUS
 10
383.13422099999991
 20
220.80054399999989
 30
0.0
 11
383.13422099999991
 21
219.800544
 31
0.0
  0
LINE
  5
997C
  8
DANMEN
  6
CONTINUOUS
 10
379.83422100000001
 20
220.80054399999989
 30
0.0
 11
379.83422100000001
 21
219.800544
 31
0.0
  0
LINE
  5
997D
  8
DANMEN
  6
CONTINUOUS
 10
383.13422099999991
 20
219.800544
 30
0.0
 11
384.13422200000002
 21
219.800544
 31
0.0
  0
LINE
  5
997E
  8
DANMEN
  6
CONTINUOUS
 10
383.13422099999991
 20
218.80054399999989
 30
0.0
 11
384.13422200000002
 21
218.80054399999989
 31
0.0
  0
LINE
  5
9983
  8
DANMEN
  6
CONTINUOUS
 10
380.63422200000002
 20
219.6005439999999
 30
0.0
 11
382.33422000000002
 21
219.6005439999999
 31
0.0
  0
LINE
  5
9988
  8
DANMEN
  6
CONTINUOUS
 10
380.63422100000003
 20
219.6005439999999
 30
0.0
 11
379.83422100000001
 21
218.80054399999989
 31
0.0
  0
LINE
  5
9989
  8
DANMEN
  6
CONTINUOUS
 10
382.33422100000001
 20
219.6005439999999
 30
0.0
 11
383.13422099999991
 21
218.80054399999989
 31
0.0
  0
ARC
  5
998E
  8
DANMEN
  6
CONTINUOUS
 10
384.984217
 20
217.800544
 30
0.0
 40
0.5
 50
270.0
 51
0.0
  0
ARC
  5
9990
  8
DANMEN
  6
CONTINUOUS
 10
384.13422200000002
 20
219.00054399999991
 30
0.0
 40
0.2
 50
270.0000179999999
 51
0.0
  0
ARC
  5
9992
  8
DANMEN
  6
CONTINUOUS
 10
384.13422200000002
 20
219.6005439999999
 30
0.0
 40
0.2
 50
0.0
 51
89.999981999999974
  0
LINE
  5
9994
  8
DANMEN
  6
CONTINUOUS
 10
384.33422100000001
 20
219.6005439999999
 30
0.0
 11
384.33422100000001
 21
219.00054399999991
 31
0.0
  0
ARC
  5
9995
  8
DANMEN
  6
CONTINUOUS
 10
383.78421700000001
 20
220.300544
 30
0.0
 40
0.5
 50
90.0
 51
180.0
  0
LINE
  5
9996
  8
DANMEN
  6
CONTINUOUS
 10
383.28421700000001
 20
220.00054399999991
 30
0.0
 11
384.484217
 21
220.00054399999991
 31
0.0
  0
ARC
  5
9997
  8
DANMEN
  6
CONTINUOUS
 10
378.63851699999992
 20
212.67529400000001
 30
0.0
 40
11.5
 50
58.283718000000007
 51
82.313893000000007
  0
ARC
  5
9998
  8
DANMEN
  6
CONTINUOUS
 10
379.13280600000002
 20
212.619212
 30
0.0
 40
12.0
 50
58.042869999999979
 51
84.739831999999993
  0
LINE
  5
9999
  8
DANMEN
  6
CONTINUOUS
 10
382.73422099999988
 20
221.6005439999999
 30
0.0
 11
384.68422099999992
 21
221.6005439999999
 31
0.0
  0
LINE
  5
999A
  8
DANMEN
  6
CONTINUOUS
 10
383.13422099999991
 20
220.80054399999989
 30
0.0
 11
385.48422099999999
 21
220.80054399999989
 31
0.0
  0
LINE
  5
999F
  8
DANMEN
  6
CONTINUOUS
 10
383.28421700000001
 20
220.300544
 30
0.0
 11
383.28421700000001
 21
220.00054399999991
 31
0.0
  0
LINE
  5
99A0
  8
DANMEN
  6
CONTINUOUS
 10
379.68421699999999
 20
220.300544
 30
0.0
 11
379.68421699999999
 21
220.00054399999991
 31
0.0
  0
LINE
  5
99A1
  8
DANMEN
  6
CONTINUOUS
 10
380.63422100000003
 20
222.48214999999999
 30
0.0
 11
381.44379399999991
 21
223.34810599999989
 31
0.0
  0
LINE
  5
99A2
  8
DANMEN
  6
CONTINUOUS
 10
380.33422100000001
 20
222.60054299999999
 30
0.0
 11
381.224648
 21
223.55298300000001
 31
0.0
  0
ARC
  5
99A4
  8
DANMEN
  6
CONTINUOUS
 10
382.73422099999988
 20
221.20054399999989
 30
0.0
 40
0.4
 50
89.999981999999974
 51
180.0000189999999
  0
ARC
  5
99AB
  8
DANMEN
  6
CONTINUOUS
 10
381.33422100000001
 20
223.45054499999989
 30
0.0
 40
0.15
 50
316.92732499999988
 51
136.92732499999991
  0
LINE
  5
99AC
  8
DANMEN
  6
CONTINUOUS
 10
380.33422100000001
 20
222.60054299999999
 30
0.0
 11
380.33422100000001
 21
221.6005439999999
 31
0.0
  0
ARC
  5
99AF
  8
DANMEN
  6
CONTINUOUS
 10
380.21003100000001
 20
224.31972799999991
 30
0.0
 40
0.25
 50
84.739831999999993
 51
262.31389300000001
  0
LINE
  5
99B2
  8
DANMEN
  6
CONTINUOUS
 10
380.63422100000003
 20
220.80054399999989
 30
0.0
 11
382.33422100000001
 21
220.80054399999989
 31
0.0
  0
LINE
  5
99B6
  8
DANMEN
  6
CONTINUOUS
 10
380.63422100000003
 20
222.48214999999999
 30
0.0
 11
380.63422100000003
 21
220.80054399999989
 31
0.0
  0
LINE
  5
99B7
  8
DANMEN
  6
CONTINUOUS
 10
382.33422100000001
 20
221.20054399999989
 30
0.0
 11
382.33422100000001
 21
220.80054399999989
 31
0.0
  0
LINE
  5
99B9
  8
DANMEN
  6
CONTINUOUS
 10
383.78421700000001
 20
220.80054399999989
 30
0.0
 11
384.984217
 21
220.80054399999989
 31
0.0
  0
ARC
  5
99BB
  8
DANMEN
  6
CONTINUOUS
 10
384.984217
 20
220.300544
 30
0.0
 40
0.5
 50
0.0
 51
90.0
  0
LINE
  5
99BE
  8
DANMEN
  6
CONTINUOUS
 10
384.68422099999992
 20
222.45790400000001
 30
0.0
 11
384.68422099999992
 21
221.6005439999999
 31
0.0
  0
LINE
  5
99C0
  8
DANMEN
  6
CONTINUOUS
 10
385.48422099999999
 20
222.800544
 30
0.0
 11
385.48422099999999
 21
220.80054399999989
 31
0.0
  0
ARC
  5
99C6
  8
DANMEN
  6
CONTINUOUS
 10
373.86332499999992
 20
227.90442999999991
 30
0.0
 40
0.5
 50
26.709831000000001
 51
273.131619
  0
LINE
  5
99C7
  8
SUNPO
  6
BYBLOCK
 10
203.915322
 20
155.0352399999999
 30
0.0
 11
203.915322
 21
136.5352399999999
 31
0.0
  0
ARC
  5
99C9
  8
SUNPO
  6
BYBLOCK
 10
203.915322
 20
136.5352399999999
 30
0.0
 40
0.145
 50
0.0
 51
180.0
  0
ARC
  5
99CA
  8
SUNPO
  6
BYBLOCK
 10
203.915322
 20
136.5352399999999
 30
0.0
 40
0.145
 50
180.0
 51
0.0
  0
TEXT
  5
99CB
  8
SUNPO
  6
CONTINUOUS
 10
229.33198799999991
 20
137.0352399999999
 30
0.0
 40
2.5
  1
55
  7
MX_NOTE_STANDARD
  0
LINE
  5
99CC
  8
DANMEN
  6
CONTINUOUS
 10
531.48421699999994
 20
212.15054399999991
 30
0.0
 11
531.48421699999994
 21
170.45054400000001
 31
0.0
  0
LINE
  5
99CD
  8
DANMEN
  6
CONTINUOUS
 10
529.48421699999994
 20
199.300544
 30
0.0
 11
529.48421699999994
 21
169.900544
 31
0.0
  0
LINE
  5
99CE
  8
DANMEN
  6
CONTINUOUS
 10
531.48421699999994
 20
170.45054400000001
 30
0.0
 11
542.83421699999985
 21
170.45054400000001
 31
0.0
  0
LINE
  5
99CF
  8
DANMEN
  6
CONTINUOUS
 10
514.98421699999994
 20
168.80054399999989
 30
0.0
 11
543.98421699999994
 21
168.80054399999989
 31
0.0
  0
LINE
  5
99D0
  8
DANMEN
  6
CONTINUOUS
 10
517.48421699999994
 20
170.45054400000001
 30
0.0
 11
523.48421699999994
 21
170.45054400000001
 31
0.0
  0
ARC
  5
99D1
  8
DANMEN
  6
CONTINUOUS
 10
523.32992100000001
 20
164.67529400000001
 30
0.0
 40
11.5
 50
97.686106999999993
 51
121.71628200000001
  0
ARC
  5
99D2
  8
DANMEN
  6
CONTINUOUS
 10
522.83563200000003
 20
164.619212
 30
0.0
 40
12.0
 50
95.260167999999993
 51
121.95712999999991
  0
LINE
  5
99D3
  8
DANMEN
  6
CONTINUOUS
 10
519.23421699999994
 20
173.6005439999999
 30
0.0
 11
517.28421700000001
 21
173.6005439999999
 31
0.0
  0
LINE
  5
99D4
  8
DANMEN
  6
CONTINUOUS
 10
519.63421700000004
 20
171.6005439999999
 30
0.0
 11
518.83421699999985
 21
170.80054399999989
 31
0.0
  0
LINE
  5
99D5
  8
DANMEN
  6
CONTINUOUS
 10
516.48421699999994
 20
174.800544
 30
0.0
 11
516.48421699999994
 21
172.800544
 31
0.0
  0
ARC
  5
99D6
  8
DANMEN
  6
CONTINUOUS
 10
514.98421699999994
 20
169.95054400000001
 30
0.0
 40
0.5
 50
90.0
 51
180.0
  0
ARC
  5
99D7
  8
DANMEN
  6
CONTINUOUS
 10
514.98421699999994
 20
169.300544
 30
0.0
 40
0.5
 50
180.0
 51
270.0
  0
LINE
  5
99DB
  8
DANMEN
  6
CONTINUOUS
 10
514.48421699999994
 20
169.95054400000001
 30
0.0
 11
514.48421699999994
 21
169.300544
 31
0.0
  0
LINE
  5
99DF
  8
DANMEN
  6
CONTINUOUS
 10
517.48421699999994
 20
172.00054399999991
 30
0.0
 11
517.48421699999994
 21
170.45054400000001
 31
0.0
  0
ARC
  5
99E2
  8
DANMEN
  6
CONTINUOUS
 10
518.18421699999999
 20
172.300544
 30
0.0
 40
0.5
 50
0.0
 51
90.0
  0
LINE
  5
99E3
  8
DANMEN
  6
CONTINUOUS
 10
518.68421699999999
 20
172.300544
 30
0.0
 11
518.68421699999999
 21
172.00054399999991
 31
0.0
  0
LINE
  5
99E4
  8
DANMEN
  6
CONTINUOUS
 10
517.48421699999994
 20
172.00054399999991
 30
0.0
 11
518.68421699999999
 21
172.00054399999991
 31
0.0
  0
ARC
  5
99E6
  8
DANMEN
  6
CONTINUOUS
 10
516.98421699999994
 20
172.300544
 30
0.0
 40
0.5
 50
90.0
 51
180.0
  0
LINE
  5
99E7
  8
DANMEN
  6
CONTINUOUS
 10
516.48421699999994
 20
172.300544
 30
0.0
 11
516.48421699999994
 21
170.45054400000001
 31
0.0
  0
LINE
  5
99E8
  8
DANMEN
  6
CONTINUOUS
 10
516.98421699999994
 20
172.800544
 30
0.0
 11
518.18421699999999
 21
172.800544
 31
0.0
  0
LINE
  5
99E9
  8
DANMEN
  6
CONTINUOUS
 10
514.98421699999994
 20
170.45054400000001
 30
0.0
 11
516.48421699999994
 21
170.45054400000001
 31
0.0
  0
LINE
  5
99ED
  8
DANMEN
  6
CONTINUOUS
 10
518.83421699999985
 20
172.800544
 30
0.0
 11
516.48421699999994
 21
172.800544
 31
0.0
  0
LINE
  5
99EF
  8
DANMEN
  6
CONTINUOUS
 10
518.83421699999985
 20
172.800544
 30
0.0
 11
518.83421699999985
 21
171.80054399999989
 31
0.0
  0
LINE
  5
99F0
  8
DANMEN
  6
CONTINUOUS
 10
518.83421699999985
 20
171.80054399999989
 30
0.0
 11
517.83421599999986
 21
171.80054399999989
 31
0.0
  0
ARC
  5
99F1
  8
DANMEN
  6
CONTINUOUS
 10
517.83421599999986
 20
171.00054399999991
 30
0.0
 40
0.2
 50
180.0
 51
269.99998199999987
  0
ARC
  5
99F3
  8
DANMEN
  6
CONTINUOUS
 10
517.83421599999986
 20
171.6005439999999
 30
0.0
 40
0.2
 50
90.000018000000011
 51
180.0
  0
LINE
  5
99F6
  8
DANMEN
  6
CONTINUOUS
 10
518.83421699999985
 20
170.80054399999989
 30
0.0
 11
517.83421599999986
 21
170.80054399999989
 31
0.0
  0
LINE
  5
99F8
  8
DANMEN
  6
CONTINUOUS
 10
517.63421700000004
 20
171.6005439999999
 30
0.0
 11
517.63421700000004
 21
171.00054399999991
 31
0.0
  0
LINE
  5
99FB
  8
DANMEN
  6
CONTINUOUS
 10
517.28421700000001
 20
174.45790400000001
 30
0.0
 11
517.28421700000001
 21
173.6005439999999
 31
0.0
  0
LINE
  5
99FD
  8
DANMEN
  6
CONTINUOUS
 10
524.37350700000002
 20
173.6005439999999
 30
0.0
 11
527.65846599999998
 21
180.129166
 31
0.0
  0
LINE
  5
99FE
  8
DANMEN
  6
CONTINUOUS
 10
524.754593
 20
172.800544
 30
0.0
 11
528.07779800000003
 21
179.40517700000001
 31
0.0
  0
LINE
  5
99FF
  8
DANMEN
  6
CONTINUOUS
 10
523.98421699999994
 20
172.800544
 30
0.0
 11
529.48421699999994
 21
172.800544
 31
0.0
  0
LINE
  5
9A00
  8
DANMEN
  6
CONTINUOUS
 10
524.48421699999994
 20
170.45054400000001
 30
0.0
 11
527.48421699999994
 21
170.45054400000001
 31
0.0
  0
ARC
  5
9A01
  8
DANMEN
  6
CONTINUOUS
 10
519.23421699999994
 20
173.20054400000001
 30
0.0
 40
0.4
 50
359.99998099999988
 51
90.000018000000011
  0
LINE
  5
9A02
  8
DANMEN
  6
CONTINUOUS
 10
521.33421699999985
 20
174.48214999999999
 30
0.0
 11
521.33421699999985
 21
172.800544
 31
0.0
  0
LINE
  5
9A03
  8
DANMEN
  6
CONTINUOUS
 10
522.2842169999999
 20
172.00054399999991
 30
0.0
 11
523.48421699999994
 21
172.00054399999991
 31
0.0
  0
LINE
  5
9A04
  8
DANMEN
  6
CONTINUOUS
 10
522.78421700000001
 20
172.800544
 30
0.0
 11
523.98421699999994
 21
172.800544
 31
0.0
  0
LINE
  5
9A05
  8
DANMEN
  6
CONTINUOUS
 10
524.754593
 20
172.800544
 30
0.0
 11
522.13421700000004
 21
172.800544
 31
0.0
  0
ARC
  5
9A06
  8
DANMEN
  6
CONTINUOUS
 10
523.13421799999992
 20
171.6005439999999
 30
0.0
 40
0.2
 50
359.99998099999988
 51
90.000018000000011
  0
ARC
  5
9A07
  8
DANMEN
  6
CONTINUOUS
 10
523.13421799999992
 20
171.00054399999991
 30
0.0
 40
0.2
 50
269.999999
 51
359.99998099999988
  0
ARC
  5
9A0A
  8
DANMEN
  6
CONTINUOUS
 10
522.78421700000001
 20
172.300544
 30
0.0
 40
0.5
 50
90.0
 51
180.0
  0
LINE
  5
9A0B
  8
DANMEN
  6
CONTINUOUS
 10
522.2842169999999
 20
172.300544
 30
0.0
 11
522.2842169999999
 21
172.00054399999991
 31
0.0
  0
LINE
  5
9A10
  8
DANMEN
  6
CONTINUOUS
 10
521.33421699999985
 20
172.800544
 30
0.0
 11
519.63421700000004
 21
172.800544
 31
0.0
  0
LINE
  5
9A13
  8
DANMEN
  6
CONTINUOUS
 10
521.33421599999986
 20
171.6005439999999
 30
0.0
 11
519.63421799999992
 21
171.6005439999999
 31
0.0
  0
LINE
  5
9A17
  8
DANMEN
  6
CONTINUOUS
 10
519.63421700000004
 20
173.20054400000001
 30
0.0
 11
519.63421700000004
 21
172.800544
 31
0.0
  0
LINE
  5
9A18
  8
DANMEN
  6
CONTINUOUS
 10
522.13421700000004
 20
172.800544
 30
0.0
 11
522.13421700000004
 21
171.80054399999989
 31
0.0
  0
LINE
  5
9A1A
  8
DANMEN
  6
CONTINUOUS
 10
521.33421699999985
 20
171.6005439999999
 30
0.0
 11
522.13421700000004
 21
170.80054399999989
 31
0.0
  0
LINE
  5
9A1C
  8
DANMEN
  6
CONTINUOUS
 10
523.13421799999992
 20
170.80054399999989
 30
0.0
 11
522.13421700000004
 21
170.80054399999989
 31
0.0
  0
LINE
  5
9A1D
  8
DANMEN
  6
CONTINUOUS
 10
523.13421799999992
 20
171.80054399999989
 30
0.0
 11
522.13421700000004
 21
171.80054399999989
 31
0.0
  0
LINE
  5
9A21
  8
DANMEN
  6
CONTINUOUS
 10
523.48421699999994
 20
172.00054399999991
 30
0.0
 11
523.48421699999994
 21
170.45054400000001
 31
0.0
  0
ARC
  5
9A23
  8
DANMEN
  6
CONTINUOUS
 10
523.98421699999994
 20
172.300544
 30
0.0
 40
0.5
 50
0.0
 51
90.0
  0
LINE
  5
9A24
  8
DANMEN
  6
CONTINUOUS
 10
524.48421699999994
 20
172.300544
 30
0.0
 11
524.48421699999994
 21
170.45054400000001
 31
0.0
  0
LINE
  5
9A28
  8
DANMEN
  6
CONTINUOUS
 10
523.33421699999985
 20
171.6005439999999
 30
0.0
 11
523.33421699999985
 21
171.00054399999991
 31
0.0
  0
LINE
  5
9A2A
  8
DANMEN
  6
CONTINUOUS
 10
524.37350700000002
 20
173.6005439999999
 30
0.0
 11
521.63421700000004
 21
173.6005439999999
 31
0.0
  0
LINE
  5
9A2B
  8
DANMEN
  6
CONTINUOUS
 10
521.33421699999985
 20
174.48214999999999
 30
0.0
 11
520.52464399999997
 21
175.348106
 31
0.0
  0
LINE
  5
9A2C
  8
DANMEN
  6
CONTINUOUS
 10
521.63421700000004
 20
174.6005429999999
 30
0.0
 11
520.74378999999999
 21
175.55298300000001
 31
0.0
  0
ARC
  5
9A34
  8
DANMEN
  6
CONTINUOUS
 10
520.63421700000004
 20
175.45054500000001
 30
0.0
 40
0.15
 50
43.072674999999997
 51
223.072675
  0
LINE
  5
9A35
  8
DANMEN
  6
CONTINUOUS
 10
521.63421700000004
 20
174.6005429999999
 30
0.0
 11
521.63421700000004
 21
173.6005439999999
 31
0.0
  0
ARC
  5
9A38
  8
DANMEN
  6
CONTINUOUS
 10
521.75840700000003
 20
176.31972799999991
 30
0.0
 40
0.25
 50
277.68610699999988
 51
95.260167999999993
  0
LINE
  5
9A3D
  8
DANMEN
  6
CONTINUOUS
 10
527.48421699999994
 20
169.900544
 30
0.0
 11
529.48421699999994
 21
169.900544
 31
0.0
  0
LINE
  5
9A3E
  8
DANMEN
  6
CONTINUOUS
 10
527.48421699999994
 20
170.45054400000001
 30
0.0
 11
527.48421699999994
 21
169.900544
 31
0.0
  0
ARC
  5
9A44
  8
DANMEN
  6
CONTINUOUS
 10
528.10511299999985
 20
179.90442999999999
 30
0.0
 40
0.5
 50
266.868381
 51
153.29016899999991
  0
LINE
  5
9A45
  8
DANMEN
  6
CONTINUOUS
 10
543.33421699999985
 20
177.300544
 30
0.0
 11
543.98421699999994
 21
177.300544
 31
0.0
  0
LINE
  5
9A46
  8
DANMEN
  6
CONTINUOUS
 10
542.83421699999985
 20
176.800544
 30
0.0
 11
542.83421699999985
 21
170.45054400000001
 31
0.0
  0
ARC
  5
9A49
  8
DANMEN
  6
CONTINUOUS
 10
543.33421699999985
 20
176.800544
 30
0.0
 40
0.5
 50
90.0
 51
180.0
  0
LINE
  5
9A4A
  8
DANMEN
  6
CONTINUOUS
 10
544.48421699999994
 20
176.800544
 30
0.0
 11
544.48421699999994
 21
169.300544
 31
0.0
  0
ARC
  5
9A4C
  8
DANMEN
  6
CONTINUOUS
 10
543.98421699999994
 20
169.300544
 30
0.0
 40
0.5
 50
270.0
 51
0.0
  0
ARC
  5
9A4E
  8
DANMEN
  6
CONTINUOUS
 10
543.98421699999994
 20
176.800544
 30
0.0
 40
0.5
 50
0.0
 51
90.0
  0
LINE
  5
9A4F
  8
DANMEN
  6
CONTINUOUS
 10
542.83422300000007
 20
212.15054399999991
 30
0.0
 11
531.48421699999994
 21
212.15054399999991
 31
0.0
  0
LINE
  5
9A50
  8
DANMEN
  6
CONTINUOUS
 10
542.83422300000007
 20
213.800544
 30
0.0
 11
531.13421100000005
 21
213.800544
 31
0.0
  0
LINE
  5
9A51
  8
DANMEN
  6
CONTINUOUS
 10
531.13421700000004
 20
216.80054399999989
 30
0.0
 11
531.13421700000004
 21
213.800544
 31
0.0
  0
LINE
  5
9A52
  8
DANMEN
  6
CONTINUOUS
 10
529.48421699999994
 20
219.70054400000001
 30
0.0
 11
529.48421699999994
 21
201.1005439999999
 31
0.0
  0
ARC
  5
9A53
  8
DANMEN
  6
CONTINUOUS
 10
519.48421699999994
 20
201.453417
 30
0.0
 40
1.0
 50
99.462322
 51
180.0
  0
ARC
  5
9A54
  8
DANMEN
  6
CONTINUOUS
 10
519.48421699999994
 20
201.147671
 30
0.0
 40
1.0
 50
180.0
 51
260.53767799999991
  0
LINE
  5
9A59
  8
DANMEN
  6
CONTINUOUS
 10
518.48421699999994
 20
201.453417
 30
0.0
 11
518.48421699999994
 21
201.147671
 31
0.0
  0
ARC
  5
9A5A
  8
DANMEN
  6
CONTINUOUS
 10
523.64067499999987
 20
202.65305699999999
 30
0.0
 40
0.5
 50
335.55604499999998
 51
99.462322
  0
LINE
  5
9A5B
  8
DANMEN
  6
CONTINUOUS
 10
523.55847599999993
 20
203.146254
 30
0.0
 11
519.31981799999994
 21
202.43981099999999
 31
0.0
  0
LINE
  5
9A5C
  8
DANMEN
  6
CONTINUOUS
 10
524.26071899999999
 20
201.1005439999999
 30
0.0
 11
529.48421699999994
 21
201.1005439999999
 31
0.0
  0
LINE
  5
9A5D
  8
DANMEN
  6
CONTINUOUS
 10
524.56697999999994
 20
199.300544
 30
0.0
 11
529.48421699999994
 21
199.300544
 31
0.0
  0
LINE
  5
9A5E
  8
DANMEN
  6
CONTINUOUS
 10
519.31981799999994
 20
200.16127700000001
 30
0.0
 11
524.40258099999994
 21
199.31415000000001
 31
0.0
  0
ARC
  5
9A61
  8
DANMEN
  6
CONTINUOUS
 10
524.26071899999999
 20
201.6005439999999
 30
0.0
 40
0.5
 50
155.5560449999999
 51
270.0
  0
ARC
  5
9A63
  8
DANMEN
  6
CONTINUOUS
 10
524.56697999999994
 20
200.30054399999989
 30
0.0
 40
1.0
 50
260.53767799999991
 51
270.0
  0
LINE
  5
9A64
  8
DANMEN
  6
CONTINUOUS
 10
523.80553599999996
 20
201.80744499999989
 30
0.0
 11
524.0958589999999
 21
202.446155
 31
0.0
  0
LINE
  5
9A6B
  8
DANMEN
  6
CONTINUOUS
 10
514.98421699999994
 20
219.15054399999991
 30
0.0
 11
524.48421699999994
 21
219.15054399999991
 31
0.0
  0
LINE
  5
9A6C
  8
DANMEN
  6
CONTINUOUS
 10
514.98421699999994
 20
220.80054399999989
 30
0.0
 11
529.48421699999994
 21
220.80054399999989
 31
0.0
  0
LINE
  5
9A6D
  8
DANMEN
  6
CONTINUOUS
 10
514.48421699999994
 20
220.300544
 30
0.0
 11
514.48421699999994
 21
219.650544
 31
0.0
  0
ARC
  5
9A6E
  8
DANMEN
  6
CONTINUOUS
 10
514.98421699999994
 20
219.650544
 30
0.0
 40
0.5
 50
180.0
 51
270.0
  0
ARC
  5
9A70
  8
DANMEN
  6
CONTINUOUS
 10
514.98421699999994
 20
220.300544
 30
0.0
 40
0.5
 50
90.0
 51
180.0
  0
LINE
  5
9A72
  8
DANMEN
  6
CONTINUOUS
 10
525.48421699999994
 20
219.15054399999991
 30
0.0
 11
527.48421699999994
 21
219.15054399999991
 31
0.0
  0
ARC
  5
9A74
  8
DANMEN
  6
CONTINUOUS
 10
524.98421699999994
 20
218.300544
 30
0.0
 40
0.5
 50
180.0
 51
270.0
  0
LINE
  5
9A78
  8
DANMEN
  6
CONTINUOUS
 10
524.48421699999994
 20
219.15054399999991
 30
0.0
 11
524.48421699999994
 21
218.300544
 31
0.0
  0
LINE
  5
9A79
  8
DANMEN
  6
CONTINUOUS
 10
525.48421699999994
 20
219.15054399999991
 30
0.0
 11
525.48421699999994
 21
217.800544
 31
0.0
  0
LINE
  5
9A7A
  8
DANMEN
  6
CONTINUOUS
 10
524.98421699999994
 20
217.800544
 30
0.0
 11
525.48421699999994
 21
217.800544
 31
0.0
  0
LINE
  5
9A7B
  8
DANMEN
  6
CONTINUOUS
 10
531.48421699999994
 20
216.80054399999989
 30
0.0
 11
531.13421100000005
 21
216.80054399999989
 31
0.0
  0
LINE
  5
9A80
  8
DANMEN
  6
CONTINUOUS
 10
527.48421699999994
 20
219.70054400000001
 30
0.0
 11
527.48421699999994
 21
219.15054399999991
 31
0.0
  0
LINE
  5
9A81
  8
DANMEN
  6
CONTINUOUS
 10
527.48421699999994
 20
219.70054400000001
 30
0.0
 11
529.48421699999994
 21
219.70054400000001
 31
0.0
  0
LINE
  5
9A84
  8
DANMEN
  6
CONTINUOUS
 10
553.98421699999994
 20
212.15054399999991
 30
0.0
 11
544.48421699999994
 21
212.15054399999991
 31
0.0
  0
LINE
  5
9A85
  8
DANMEN
  6
CONTINUOUS
 10
553.98421699999994
 20
213.800544
 30
0.0
 11
544.48421699999994
 21
213.800544
 31
0.0
  0
LINE
  5
9A86
  8
DANMEN
  6
CONTINUOUS
 10
543.98421699999994
 20
209.300544
 30
0.0
 11
543.33422299999995
 21
209.300544
 31
0.0
  0
LINE
  5
9A88
  8
DANMEN
  6
CONTINUOUS
 10
542.83422300000007
 20
212.15054399999991
 30
0.0
 11
542.83422300000007
 21
209.800544
 31
0.0
  0
ARC
  5
9A89
  8
DANMEN
  6
CONTINUOUS
 10
543.33422299999995
 20
209.800544
 30
0.0
 40
0.5
 50
180.0000189999999
 51
269.99998199999987
  0
LINE
  5
9A8C
  8
DANMEN
  6
CONTINUOUS
 10
544.48421699999994
 20
212.15054399999991
 30
0.0
 11
544.48421699999994
 21
209.800544
 31
0.0
  0
ARC
  5
9A8D
  8
DANMEN
  6
CONTINUOUS
 10
543.98421699999994
 20
209.800544
 30
0.0
 40
0.5
 50
270.00003700000002
 51
359.99996399999998
  0
LINE
  5
9A91
  8
DANMEN
  6
CONTINUOUS
 10
554.48421699999994
 20
213.300544
 30
0.0
 11
554.48421699999994
 21
212.65054399999991
 31
0.0
  0
ARC
  5
9A92
  8
DANMEN
  6
CONTINUOUS
 10
553.98421699999994
 20
212.65054399999991
 30
0.0
 40
0.5
 50
269.999999
 51
359.99998099999988
  0
ARC
  5
9A93
  8
DANMEN
  6
CONTINUOUS
 10
553.98421699999994
 20
213.300544
 30
0.0
 40
0.5
 50
359.99998099999988
 51
90.000018000000011
  0
LINE
  5
9A96
  8
SUNPO
  6
BYBLOCK
 10
193.915322
 20
156.5352399999999
 30
0.0
 11
193.915322
 21
216.5352399999999
 31
0.0
  0
LINE
  5
9A97
  8
SUNPO
  6
BYBLOCK
 10
202.415322
 20
156.5352399999999
 30
0.0
 11
193.915322
 21
156.5352399999999
 31
0.0
  0
LINE
  5
9A98
  8
SUNPO
  6
BYBLOCK
 10
193.915322
 20
146.5352399999999
 30
0.0
 11
193.915322
 21
156.5352399999999
 31
0.0
  0
TEXT
  5
9A99
  8
SUNPO
  6
CONTINUOUS
 10
193.41532199999989
 20
150.07690700000001
 30
0.0
 40
2.5
  1
10
 50
90.0
  7
MX_NOTE_STANDARD
  0
ARC
  5
9A9A
  8
SUNPO
  6
BYBLOCK
 10
193.915322
 20
146.5352399999999
 30
0.0
 40
0.145
 50
90.0
 51
270.0
  0
ARC
  5
9A9B
  8
SUNPO
  6
BYBLOCK
 10
193.915322
 20
146.5352399999999
 30
0.0
 40
0.145
 50
270.0
 51
90.0
  0
LINE
  5
9A9C
  8
SUNPO
  6
CONTINUOUS
 10
193.915322
 20
156.5352399999999
 30
0.0
 11
193.915322
 21
156.5352399999999
 31
0.0
  0
ARC
  5
9A9F
  8
SUNPO
  6
BYBLOCK
 10
193.915322
 20
156.5352399999999
 30
0.0
 40
0.145
 50
270.0
 51
90.0
  0
ARC
  5
9AA0
  8
SUNPO
  6
BYBLOCK
 10
193.915322
 20
156.5352399999999
 30
0.0
 40
0.145
 50
90.0
 51
270.0
  0
ARC
  5
9AA1
  8
SUNPO
  6
BYBLOCK
 10
193.915322
 20
156.5352399999999
 30
0.0
 40
0.145
 50
90.0
 51
270.0
  0
ARC
  5
9AA2
  8
SUNPO
  6
BYBLOCK
 10
193.915322
 20
156.5352399999999
 30
0.0
 40
0.145
 50
270.0
 51
90.0
  0
TEXT
  5
9AA4
  8
SUNPO
  6
CONTINUOUS
 10
193.41532199999989
 20
184.6602399999999
 30
0.0
 40
2.5
  1
60
 50
90.0
  7
MX_NOTE_STANDARD
  0
LINE
  5
9AA7
  8
SUNPO
  6
BYBLOCK
 10
202.415322
 20
216.5352399999999
 30
0.0
 11
193.915322
 21
216.5352399999999
 31
0.0
  0
ARC
  5
9AA9
  8
SUNPO
  6
BYBLOCK
 10
193.915322
 20
216.5352399999999
 30
0.0
 40
0.145
 50
270.0
 51
90.0
  0
ARC
  5
9AAA
  8
SUNPO
  6
BYBLOCK
 10
193.915322
 20
216.5352399999999
 30
0.0
 40
0.145
 50
90.0
 51
270.0
  0
LINE
  5
9AAC
  8
SUNPO
  6
BYBLOCK
 10
387.48421699999989
 20
148.800544
 30
0.0
 11
357.484217
 21
148.800544
 31
0.0
  0
LINE
  5
9AAD
  8
SUNPO
  6
BYBLOCK
 10
372.484217
 20
158.800544
 30
0.0
 11
357.484217
 21
158.800544
 31
0.0
  0
TEXT
  5
9AAE
  8
SUNPO
  6
CONTINUOUS
 10
363.31754999999998
 20
159.30054399999989
 30
0.0
 40
2.5
  1
15
  7
MX_NOTE_STANDARD
  0
LINE
  5
9AAF
  8
SUNPO
  6
BYBLOCK
 10
258.915322
 20
145.0352399999999
 30
0.0
 11
258.915322
 21
136.5352399999999
 31
0.0
  0
LINE
  5
9AB0
  8
SUNPO
  6
BYBLOCK
 10
303.915322
 20
145.0352399999999
 30
0.0
 11
303.915322
 21
136.5352399999999
 31
0.0
  0
LINE
  5
9AB1
  8
SUNPO
  6
BYBLOCK
 10
258.915322
 20
145.0352399999999
 30
0.0
 11
258.915322
 21
136.5352399999999
 31
0.0
  0
LINE
  5
9AB2
  8
SUNPO
  6
BYBLOCK
 10
303.915322
 20
136.5352399999999
 30
0.0
 11
258.915322
 21
136.5352399999999
 31
0.0
  0
ARC
  5
9AB4
  8
SUNPO
  6
BYBLOCK
 10
258.915322
 20
136.5352399999999
 30
0.0
 40
0.145
 50
180.0
 51
0.0
  0
ARC
  5
9AB5
  8
SUNPO
  6
BYBLOCK
 10
258.915322
 20
136.5352399999999
 30
0.0
 40
0.145
 50
0.0
 51
180.0
  0
ARC
  5
9AB6
  8
SUNPO
  6
BYBLOCK
 10
258.915322
 20
136.5352399999999
 30
0.0
 40
0.145
 50
0.0
 51
180.0
  0
ARC
  5
9AB7
  8
SUNPO
  6
BYBLOCK
 10
258.915322
 20
136.5352399999999
 30
0.0
 40
0.145
 50
180.0
 51
0.0
  0
TEXT
  5
9AB8
  8
SUNPO
  6
CONTINUOUS
 10
279.33198799999991
 20
137.0352399999999
 30
0.0
 40
2.5
  1
45
  7
MX_NOTE_STANDARD
  0
ARC
  5
9AB9
  8
SUNPO
  6
BYBLOCK
 10
303.915322
 20
136.5352399999999
 30
0.0
 40
0.145
 50
180.0
 51
0.0
  0
ARC
  5
9ABA
  8
SUNPO
  6
BYBLOCK
 10
303.915322
 20
136.5352399999999
 30
0.0
 40
0.145
 50
0.0
 51
180.0
  0
LINE
  5
9ABE
  8
SUNPO
  6
BYBLOCK
 10
347.484217
 20
210.650543
 30
0.0
 11
347.484217
 21
148.800544
 31
0.0
  0
LINE
  5
9ABF
  8
SUNPO
  6
BYBLOCK
 10
333.915322
 20
216.5352399999999
 30
0.0
 11
333.915322
 21
146.5352399999999
 31
0.0
  0
LINE
  5
9AC0
  8
SUNPO
  6
BYBLOCK
 10
323.91532199999989
 20
216.5352399999999
 30
0.0
 11
323.91532199999989
 21
166.5352399999999
 31
0.0
  0
TEXT
  5
9AC1
  8
SUNPO
  6
CONTINUOUS
 10
323.415322
 20
189.6602399999999
 30
0.0
 40
2.5
  1
50
 50
90.0
  7
MX_NOTE_STANDARD
  0
LINE
  5
9AC2
  8
SUNPO
  6
BYBLOCK
 10
305.41532199999989
 20
146.5352399999999
 30
0.0
 11
333.915322
 21
146.5352399999999
 31
0.0
  0
TEXT
  5
9AC3
  8
SUNPO
  6
CONTINUOUS
 10
333.415322
 20
179.6602399999999
 30
0.0
 40
2.5
  1
70
 50
90.0
  7
MX_NOTE_STANDARD
  0
LINE
  5
9AC4
  8
SUNPO
  6
BYBLOCK
 10
304.91532199999989
 20
166.5352399999999
 30
0.0
 11
323.91532199999989
 21
166.5352399999999
 31
0.0
  0
LINE
  5
9AC5
  8
SUNPO
  6
BYBLOCK
 10
315.41532199999989
 20
166.5352399999999
 30
0.0
 11
323.91532199999989
 21
166.5352399999999
 31
0.0
  0
LINE
  5
9AC6
  8
SUNPO
  6
BYBLOCK
 10
305.41532199999989
 20
146.5352399999999
 30
0.0
 11
323.91532199999989
 21
146.5352399999999
 31
0.0
  0
LINE
  5
9ACC
  8
SUNPO
  6
BYBLOCK
 10
323.91532199999989
 20
166.5352399999999
 30
0.0
 11
323.91532199999989
 21
146.5352399999999
 31
0.0
  0
TEXT
  5
9ACD
  8
SUNPO
  6
CONTINUOUS
 10
323.415322
 20
154.6602399999999
 30
0.0
 40
2.5
  1
20
 50
90.0
  7
MX_NOTE_STANDARD
  0
ARC
  5
9ACF
  8
SUNPO
  6
BYBLOCK
 10
323.91532199999989
 20
146.5352399999999
 30
0.0
 40
0.145
 50
90.0
 51
270.0
  0
ARC
  5
9AD0
  8
SUNPO
  6
BYBLOCK
 10
323.91532199999989
 20
146.5352399999999
 30
0.0
 40
0.145
 50
270.0
 51
90.0
  0
ARC
  5
9AD2
  8
SUNPO
  6
BYBLOCK
 10
323.91532199999989
 20
166.5352399999999
 30
0.0
 40
0.145
 50
90.0
 51
270.0
  0
ARC
  5
9AD3
  8
SUNPO
  6
BYBLOCK
 10
323.91532199999989
 20
166.5352399999999
 30
0.0
 40
0.145
 50
270.0
 51
90.0
  0
ARC
  5
9AD4
  8
SUNPO
  6
BYBLOCK
 10
323.91532199999989
 20
166.5352399999999
 30
0.0
 40
0.145
 50
270.0
 51
90.0
  0
ARC
  5
9AD5
  8
SUNPO
  6
BYBLOCK
 10
323.91532199999989
 20
166.5352399999999
 30
0.0
 40
0.145
 50
90.0
 51
270.0
  0
LINE
  5
9AD6
  8
SUNPO
  6
BYBLOCK
 10
357.484217
 20
148.800544
 30
0.0
 11
347.484217
 21
148.800544
 31
0.0
  0
ARC
  5
9AD8
  8
SUNPO
  6
BYBLOCK
 10
333.915322
 20
146.5352399999999
 30
0.0
 40
0.145
 50
90.0
 51
270.0
  0
ARC
  5
9AD9
  8
SUNPO
  6
BYBLOCK
 10
333.915322
 20
146.5352399999999
 30
0.0
 40
0.145
 50
270.0
 51
90.0
  0
ARC
  5
9ADB
  8
SUNPO
  6
BYBLOCK
 10
347.484217
 20
148.800544
 30
0.0
 40
0.145
 50
0.0
 51
180.0
  0
ARC
  5
9ADC
  8
SUNPO
  6
BYBLOCK
 10
347.484217
 20
148.800544
 30
0.0
 40
0.145
 50
180.0
 51
0.0
  0
LINE
  5
9ADD
  8
SUNPO
  6
BYBLOCK
 10
357.484217
 20
167.300544
 30
0.0
 11
357.484217
 21
148.800544
 31
0.0
  0
LINE
  5
9ADE
  8
SUNPO
  6
BYBLOCK
 10
357.484217
 20
167.300544
 30
0.0
 11
357.484217
 21
148.800544
 31
0.0
  0
TEXT
  5
9ADF
  8
SUNPO
  6
CONTINUOUS
 10
351.02588300000002
 20
149.300544
 30
0.0
 40
2.5
  1
10
  7
MX_NOTE_STANDARD
  0
ARC
  5
9AE1
  8
SUNPO
  6
BYBLOCK
 10
357.484217
 20
148.800544
 30
0.0
 40
0.145
 50
0.0
 51
180.0
  0
ARC
  5
9AE2
  8
SUNPO
  6
BYBLOCK
 10
357.484217
 20
148.800544
 30
0.0
 40
0.145
 50
180.0
 51
0.0
  0
ARC
  5
9AE3
  8
SUNPO
  6
BYBLOCK
 10
357.484217
 20
148.800544
 30
0.0
 40
0.145
 50
180.0
 51
0.0
  0
ARC
  5
9AE4
  8
SUNPO
  6
BYBLOCK
 10
357.484217
 20
148.800544
 30
0.0
 40
0.145
 50
0.0
 51
180.0
  0
LINE
  5
9AE5
  8
SUNPO
  6
BYBLOCK
 10
357.484217
 20
167.300544
 30
0.0
 11
357.484217
 21
158.800544
 31
0.0
  0
ARC
  5
9AE7
  8
SUNPO
  6
BYBLOCK
 10
357.484217
 20
158.800544
 30
0.0
 40
0.145
 50
0.0
 51
180.0
  0
ARC
  5
9AE8
  8
SUNPO
  6
BYBLOCK
 10
357.484217
 20
158.800544
 30
0.0
 40
0.145
 50
180.0
 51
0.0
  0
LINE
  5
9AEC
  8
SUNPO
  6
BYBLOCK
 10
305.41532199999989
 20
216.5352399999999
 30
0.0
 11
333.915322
 21
216.5352399999999
 31
0.0
  0
LINE
  5
9AED
  8
SUNPO
  6
CONTINUOUS
 10
333.915322
 20
216.5352399999999
 30
0.0
 11
328.915322
 21
221.5352399999999
 31
0.0
  0
LINE
  5
9AEE
  8
SUNPO
  6
CONTINUOUS
 10
328.915322
 20
221.5352399999999
 30
0.0
 11
338.915322
 21
221.5352399999999
 31
0.0
  0
LINE
  5
9AEF
  8
SUNPO
  6
BYBLOCK
 10
313.915322
 20
216.5352399999999
 30
0.0
 11
313.915322
 21
202.53523999999999
 31
0.0
  0
ARC
  5
9AF0
  8
SUNPO
  6
BYBLOCK
 10
313.915322
 20
202.53523999999999
 30
0.0
 40
0.145
 50
90.0
 51
270.0
  0
ARC
  5
9AF1
  8
SUNPO
  6
BYBLOCK
 10
313.915322
 20
202.53523999999999
 30
0.0
 40
0.145
 50
270.0
 51
90.0
  0
LINE
  5
9AF2
  8
SUNPO
  6
BYBLOCK
 10
303.76532200000003
 20
202.53523999999999
 30
0.0
 11
313.915322
 21
202.53523999999999
 31
0.0
  0
TEXT
  5
9AF5
  8
SUNPO
  6
CONTINUOUS
 10
313.41532199999989
 20
207.868573
 30
0.0
 40
2.5
  1
14
 50
90.0
  7
MX_NOTE_STANDARD
  0
LINE
  5
9AF6
  8
SUNPO
  6
BYBLOCK
 10
315.41532199999989
 20
216.5352399999999
 30
0.0
 11
323.91532199999989
 21
216.5352399999999
 31
0.0
  0
LINE
  5
9AF7
  8
SUNPO
  6
BYBLOCK
 10
305.41532199999989
 20
216.5352399999999
 30
0.0
 11
313.915322
 21
216.5352399999999
 31
0.0
  0
ARC
  5
9AFB
  8
SUNPO
  6
BYBLOCK
 10
313.915322
 20
216.5352399999999
 30
0.0
 40
0.145
 50
270.0
 51
90.0
  0
ARC
  5
9AFC
  8
SUNPO
  6
BYBLOCK
 10
313.915322
 20
216.5352399999999
 30
0.0
 40
0.145
 50
90.0
 51
270.0
  0
ARC
  5
9AFD
  8
SUNPO
  6
BYBLOCK
 10
323.91532199999989
 20
216.5352399999999
 30
0.0
 40
0.145
 50
270.0
 51
90.0
  0
ARC
  5
9AFE
  8
SUNPO
  6
BYBLOCK
 10
323.91532199999989
 20
216.5352399999999
 30
0.0
 40
0.145
 50
90.0
 51
270.0
  0
LINE
  5
9B02
  8
SUNPO
  6
CONTINUOUS
 10
338.915322
 20
221.5352399999999
 30
0.0
 11
333.915322
 21
216.5352399999999
 31
0.0
  0
LINE
  5
9B05
  8
SUNPO
  6
CONTINUOUS
 10
392.484217
 20
143.80054399999989
 30
0.0
 11
387.48421699999989
 21
148.800544
 31
0.0
  0
LINE
  5
9B06
  8
SUNPO
  6
CONTINUOUS
 10
392.484217
 20
153.800544
 30
0.0
 11
392.484217
 21
143.80054399999989
 31
0.0
  0
LINE
  5
9B08
  8
SUNPO
  6
CONTINUOUS
 10
387.48421699999989
 20
148.800544
 30
0.0
 11
433.48421699999989
 21
148.800544
 31
0.0
  0
LINE
  5
9B09
  8
SUNPO
  6
BYBLOCK
 10
372.484217
 20
168.40054499999991
 30
0.0
 11
372.484217
 21
158.800544
 31
0.0
  0
LINE
  5
9B0A
  8
SUNPO
  6
BYBLOCK
 10
387.48421699999989
 20
158.800544
 30
0.0
 11
372.484217
 21
158.800544
 31
0.0
  0
TEXT
  5
9B0B
  8
SUNPO
  6
CONTINUOUS
 10
378.31754999999998
 20
159.30054399999989
 30
0.0
 40
2.5
  1
15
  7
MX_NOTE_STANDARD
  0
TEXT
  5
9B0C
  8
SUNPO
  6
CONTINUOUS
 10
370.609217
 20
149.300544
 30
0.0
 40
2.5
  1
30
  7
MX_NOTE_STANDARD
  0
LINE
  5
9B0D
  8
SUNPO
  6
BYBLOCK
 10
372.484217
 20
167.300544
 30
0.0
 11
372.484217
 21
158.800544
 31
0.0
  0
ARC
  5
9B0F
  8
SUNPO
  6
BYBLOCK
 10
372.484217
 20
158.800544
 30
0.0
 40
0.145
 50
180.0
 51
0.0
  0
ARC
  5
9B10
  8
SUNPO
  6
BYBLOCK
 10
372.484217
 20
158.800544
 30
0.0
 40
0.145
 50
0.0
 51
180.0
  0
ARC
  5
9B11
  8
SUNPO
  6
BYBLOCK
 10
372.484217
 20
158.800544
 30
0.0
 40
0.145
 50
0.0
 51
180.0
  0
ARC
  5
9B12
  8
SUNPO
  6
BYBLOCK
 10
372.484217
 20
158.800544
 30
0.0
 40
0.145
 50
180.0
 51
0.0
  0
LINE
  5
9B13
  8
SUNPO
  6
BYBLOCK
 10
387.48421699999989
 20
167.300544
 30
0.0
 11
387.48421699999989
 21
148.800544
 31
0.0
  0
LINE
  5
9B14
  8
SUNPO
  6
CONTINUOUS
 10
387.48421699999989
 20
148.800544
 30
0.0
 11
392.484217
 21
153.800544
 31
0.0
  0
LINE
  5
9B17
  8
SUNPO
  6
BYBLOCK
 10
387.48421699999989
 20
167.300544
 30
0.0
 11
387.48421699999989
 21
158.800544
 31
0.0
  0
ARC
  5
9B18
  8
SUNPO
  6
BYBLOCK
 10
387.48421699999989
 20
158.800544
 30
0.0
 40
0.145
 50
180.0
 51
0.0
  0
ARC
  5
9B19
  8
SUNPO
  6
BYBLOCK
 10
387.48421699999989
 20
158.800544
 30
0.0
 40
0.145
 50
0.0
 51
180.0
  0
LINE
  5
9B1E
  8
SUNPO
  6
CONTINUOUS
 10
451.02117599999991
 20
145.30054799999991
 30
0.0
 11
446.97973200000001
 21
152.3005409999999
 31
0.0
  0
LINE
  5
9B1F
  8
SUNPO
  6
CONTINUOUS
 10
448.71177699999998
 20
145.300545
 30
0.0
 11
444.67033099999998
 21
152.30054199999989
 31
0.0
  0
LINE
  5
9B20
  8
SUNPO
  6
CONTINUOUS
 10
447.9797309999999
 20
152.300544
 30
0.0
 11
443.67032999999992
 21
152.300544
 31
0.0
  0
LINE
  5
9B21
  8
SUNPO
  6
CONTINUOUS
 10
442.36099299999989
 20
145.300545
 30
0.0
 11
438.319548
 21
152.3005409999999
 31
0.0
  0
LINE
  5
9B22
  8
SUNPO
  6
CONTINUOUS
 10
441.59055699999999
 20
152.300544
 30
0.0
 11
437.21520700000002
 21
152.300544
 31
0.0
  0
LINE
  5
9B23
  8
SUNPO
  6
CONTINUOUS
 10
444.67033099999998
 20
145.300544
 30
0.0
 11
440.62888500000003
 21
152.3005409999999
 31
0.0
  0
LINE
  5
9B24
  8
SUNPO
  6
CONTINUOUS
 10
444.67032999999998
 20
152.300544
 30
0.0
 11
444.67032999999998
 21
145.300545
 31
0.0
  0
LINE
  5
9B25
  8
SUNPO
  6
CONTINUOUS
 10
445.67032999999998
 20
145.300544
 30
0.0
 11
441.19279899999998
 21
145.300544
 31
0.0
  0
LINE
  5
9B26
  8
SUNPO
  6
CONTINUOUS
 10
459.75322699999998
 20
147.300544
 30
0.0
 11
454.75322699999992
 21
147.300544
 31
0.0
  0
LINE
  5
9B27
  8
SUNPO
  6
CONTINUOUS
 10
459.75322699999998
 20
150.300544
 30
0.0
 11
454.75322699999992
 21
150.300544
 31
0.0
  0
LINE
  5
9B28
  8
SUNPO
  6
CONTINUOUS
 10
451.02117800000002
 20
152.300544
 30
0.0
 11
451.02117800000002
 21
145.30054699999991
 31
0.0
  0
LINE
  5
9B29
  8
SUNPO
  6
CONTINUOUS
 10
451.59852699999988
 20
145.300544
 30
0.0
 11
448.020779
 21
145.300544
 31
0.0
  0
LINE
  5
9B2B
  8
SUNPO
  6
CONTINUOUS
 10
451.98002199999991
 20
152.300544
 30
0.0
 11
449.94350199999991
 21
152.300544
 31
0.0
  0
ARC
  5
9B2C
  8
SUNPO
  6
BYBLOCK
 10
452.484217
 20
168.80054399999989
 30
0.0
 40
0.145
 50
90.0
 51
270.0
  0
ARC
  5
9B2D
  8
SUNPO
  6
BYBLOCK
 10
452.484217
 20
168.80054399999989
 30
0.0
 40
0.145
 50
270.0
 51
90.0
  0
TEXT
  5
9B2F
  8
SUNPO
  6
CONTINUOUS
 10
451.984217
 20
216.300544
 30
0.0
 40
2.5
  1
100
 50
90.0
  7
MX_NOTE_STANDARD
  0
LINE
  5
9B30
  8
SUNPO
  6
CONTINUOUS
 10
514.48421699999994
 20
148.800544
 30
0.0
 11
509.48421699999989
 21
143.80054399999989
 31
0.0
  0
LINE
  5
9B31
  8
SUNPO
  6
CONTINUOUS
 10
509.48421699999989
 20
143.80054399999989
 30
0.0
 11
509.48421699999989
 21
153.800544
 31
0.0
  0
LINE
  5
9B33
  8
SUNPO
  6
BYBLOCK
 10
555.98421699999994
 20
213.800544
 30
0.0
 11
564.48421699999994
 21
213.800544
 31
0.0
  0
LINE
  5
9B34
  8
SUNPO
  6
BYBLOCK
 10
555.98421699999994
 20
213.800544
 30
0.0
 11
564.48421699999994
 21
213.800544
 31
0.0
  0
LINE
  5
9B35
  8
SUNPO
  6
BYBLOCK
 10
545.98421699999994
 20
168.80054399999989
 30
0.0
 11
564.48421699999994
 21
168.80054399999989
 31
0.0
  0
TEXT
  5
9B36
  8
SUNPO
  6
CONTINUOUS
 10
563.98421699999994
 20
189.21721099999999
 30
0.0
 40
2.5
  1
45
 50
90.0
  7
MX_NOTE_STANDARD
  0
LINE
  5
9B37
  8
SUNPO
  6
BYBLOCK
 10
554.48421699999994
 20
210.650543
 30
0.0
 11
554.48421699999994
 21
148.800544
 31
0.0
  0
LINE
  5
9B38
  8
SUNPO
  6
BYBLOCK
 10
529.48421699999994
 20
158.800544
 30
0.0
 11
514.48421699999994
 21
158.800544
 31
0.0
  0
LINE
  5
9B39
  8
SUNPO
  6
BYBLOCK
 10
544.48421699999994
 20
148.800544
 30
0.0
 11
514.48421699999994
 21
148.800544
 31
0.0
  0
TEXT
  5
9B3A
  8
SUNPO
  6
CONTINUOUS
 10
527.60921699999994
 20
149.300544
 30
0.0
 40
2.5
  1
30
  7
MX_NOTE_STANDARD
  0
LINE
  5
9B3B
  8
SUNPO
  6
CONTINUOUS
 10
509.48421699999989
 20
153.800544
 30
0.0
 11
514.48421699999994
 21
148.800544
 31
0.0
  0
LINE
  5
9B3D
  8
SUNPO
  6
BYBLOCK
 10
514.48421699999994
 20
167.300544
 30
0.0
 11
514.48421699999994
 21
148.800544
 31
0.0
  0
TEXT
  5
9B40
  8
SUNPO
  6
CONTINUOUS
 10
520.31754999999987
 20
159.30054399999989
 30
0.0
 40
2.5
  1
15
  7
MX_NOTE_STANDARD
  0
LINE
  5
9B41
  8
SUNPO
  6
BYBLOCK
 10
514.48421699999994
 20
167.300544
 30
0.0
 11
514.48421699999994
 21
158.800544
 31
0.0
  0
ARC
  5
9B43
  8
SUNPO
  6
BYBLOCK
 10
514.48421699999994
 20
158.800544
 30
0.0
 40
0.145
 50
0.0
 51
180.0
  0
ARC
  5
9B44
  8
SUNPO
  6
BYBLOCK
 10
514.48421699999994
 20
158.800544
 30
0.0
 40
0.145
 50
180.0
 51
0.0
  0
LINE
  5
9B47
  8
SUNPO
  6
BYBLOCK
 10
554.48421699999994
 20
148.800544
 30
0.0
 11
544.48421699999994
 21
148.800544
 31
0.0
  0
LINE
  5
9B48
  8
SUNPO
  6
BYBLOCK
 10
544.48421699999994
 20
167.300544
 30
0.0
 11
544.48421699999994
 21
148.800544
 31
0.0
  0
LINE
  5
9B49
  8
SUNPO
  6
BYBLOCK
 10
544.48421699999994
 20
167.300544
 30
0.0
 11
544.48421699999994
 21
148.800544
 31
0.0
  0
ARC
  5
9B4B
  8
SUNPO
  6
BYBLOCK
 10
544.48421699999994
 20
148.800544
 30
0.0
 40
0.145
 50
0.0
 51
180.0
  0
ARC
  5
9B4C
  8
SUNPO
  6
BYBLOCK
 10
544.48421699999994
 20
148.800544
 30
0.0
 40
0.145
 50
180.0
 51
0.0
  0
ARC
  5
9B4D
  8
SUNPO
  6
BYBLOCK
 10
544.48421699999994
 20
148.800544
 30
0.0
 40
0.145
 50
180.0
 51
0.0
  0
ARC
  5
9B4E
  8
SUNPO
  6
BYBLOCK
 10
544.48421699999994
 20
148.800544
 30
0.0
 40
0.145
 50
0.0
 51
180.0
  0
LINE
  5
9B4F
  8
SUNPO
  6
BYBLOCK
 10
544.48421699999994
 20
158.800544
 30
0.0
 11
529.48421699999994
 21
158.800544
 31
0.0
  0
TEXT
  5
9B50
  8
SUNPO
  6
CONTINUOUS
 10
535.31754999999987
 20
159.30054399999989
 30
0.0
 40
2.5
  1
15
  7
MX_NOTE_STANDARD
  0
LINE
  5
9B51
  8
SUNPO
  6
BYBLOCK
 10
529.48421699999994
 20
167.300544
 30
0.0
 11
529.48421699999994
 21
158.800544
 31
0.0
  0
LINE
  5
9B52
  8
SUNPO
  6
BYBLOCK
 10
529.48421699999994
 20
167.300544
 30
0.0
 11
529.48421699999994
 21
158.800544
 31
0.0
  0
ARC
  5
9B54
  8
SUNPO
  6
BYBLOCK
 10
529.48421699999994
 20
158.800544
 30
0.0
 40
0.145
 50
180.0
 51
0.0
  0
ARC
  5
9B55
  8
SUNPO
  6
BYBLOCK
 10
529.48421699999994
 20
158.800544
 30
0.0
 40
0.145
 50
0.0
 51
180.0
  0
ARC
  5
9B56
  8
SUNPO
  6
BYBLOCK
 10
529.48421699999994
 20
158.800544
 30
0.0
 40
0.145
 50
0.0
 51
180.0
  0
ARC
  5
9B57
  8
SUNPO
  6
BYBLOCK
 10
529.48421699999994
 20
158.800544
 30
0.0
 40
0.145
 50
180.0
 51
0.0
  0
LINE
  5
9B58
  8
SUNPO
  6
BYBLOCK
 10
544.48421699999994
 20
167.300544
 30
0.0
 11
544.48421699999994
 21
158.800544
 31
0.0
  0
ARC
  5
9B59
  8
SUNPO
  6
BYBLOCK
 10
544.48421699999994
 20
158.800544
 30
0.0
 40
0.145
 50
180.0
 51
0.0
  0
ARC
  5
9B5A
  8
SUNPO
  6
BYBLOCK
 10
544.48421699999994
 20
158.800544
 30
0.0
 40
0.145
 50
0.0
 51
180.0
  0
TEXT
  5
9B5B
  8
SUNPO
  6
CONTINUOUS
 10
548.02588300000002
 20
149.300544
 30
0.0
 40
2.5
  1
10
  7
MX_NOTE_STANDARD
  0
ARC
  5
9B5C
  8
SUNPO
  6
BYBLOCK
 10
554.48421699999994
 20
148.800544
 30
0.0
 40
0.145
 50
180.0
 51
0.0
  0
ARC
  5
9B5D
  8
SUNPO
  6
BYBLOCK
 10
554.48421699999994
 20
148.800544
 30
0.0
 40
0.145
 50
0.0
 51
180.0
  0
LINE
  5
9B68
  8
SUNPO
  6
BYBLOCK
 10
564.48421699999994
 20
213.800544
 30
0.0
 11
564.48421699999994
 21
168.80054399999989
 31
0.0
  0
ARC
  5
9B6A
  8
SUNPO
  6
BYBLOCK
 10
564.48421699999994
 20
168.80054399999989
 30
0.0
 40
0.145
 50
90.0
 51
270.0
  0
ARC
  5
9B6B
  8
SUNPO
  6
BYBLOCK
 10
564.48421699999994
 20
168.80054399999989
 30
0.0
 40
0.145
 50
270.0
 51
90.0
  0
ARC
  5
9B6D
  8
SUNPO
  6
BYBLOCK
 10
564.48421699999994
 20
213.800544
 30
0.0
 40
0.145
 50
90.0
 51
270.0
  0
ARC
  5
9B6E
  8
SUNPO
  6
BYBLOCK
 10
564.48421699999994
 20
213.800544
 30
0.0
 40
0.145
 50
270.0
 51
90.0
  0
ARC
  5
9B6F
  8
SUNPO
  6
BYBLOCK
 10
564.48421699999994
 20
213.800544
 30
0.0
 40
0.145
 50
270.0
 51
90.0
  0
ARC
  5
9B70
  8
SUNPO
  6
BYBLOCK
 10
564.48421699999994
 20
213.800544
 30
0.0
 40
0.145
 50
90.0
 51
270.0
  0
LINE
  5
9B71
  8
SUNPO
  6
BYBLOCK
 10
497.484217
 20
268.80054399999989
 30
0.0
 11
452.484217
 21
268.80054399999989
 31
0.0
  0
LINE
  5
9B72
  8
SUNPO
  6
BYBLOCK
 10
497.484217
 20
268.80054399999989
 30
0.0
 11
452.484217
 21
268.80054399999989
 31
0.0
  0
LINE
  5
9B73
  8
SUNPO
  6
BYBLOCK
 10
303.915322
 20
259.03523999999987
 30
0.0
 11
203.915322
 21
259.03523999999987
 31
0.0
  0
LINE
  5
9B74
  8
SUNPO
  6
BYBLOCK
 10
257.41532199999989
 20
344.53524099999998
 30
0.0
 11
193.915322
 21
344.53524099999998
 31
0.0
  0
LINE
  5
9B75
  8
SUNPO
  6
BYBLOCK
 10
257.41532199999989
 20
354.53524499999997
 30
0.0
 11
193.915322
 21
354.53524499999997
 31
0.0
  0
LINE
  5
9B76
  8
SUNPO
  6
BYBLOCK
 10
257.41532199999989
 20
344.53524099999998
 30
0.0
 11
193.915322
 21
344.53524099999998
 31
0.0
  0
LINE
  5
9B77
  8
DANMEN
  6
CONTINUOUS
 10
486.98420199999998
 20
251.300544
 30
0.0
 11
529.48421699999994
 21
251.300544
 31
0.0
  0
LINE
  5
9B78
  8
DANMEN
  6
CONTINUOUS
 10
486.98420199999998
 20
248.30054399999989
 30
0.0
 11
529.48421699999994
 21
248.30054399999989
 31
0.0
  0
LINE
  5
9B79
  8
DANMEN
  6
CONTINUOUS
 10
514.48421699999994
 20
268.80054399999989
 30
0.0
 11
498.984217
 21
268.80054399999989
 31
0.0
  0
LINE
  5
9B7A
  8
DANMEN
  6
CONTINUOUS
 10
452.484217
 20
261.800544
 30
0.0
 11
529.48421699999994
 21
261.800544
 31
0.0
  0
LINE
  5
9B7B
  8
DANMEN
  6
CONTINUOUS
 10
452.484217
 20
251.800544
 30
0.0
 11
529.48421699999994
 21
251.800544
 31
0.0
  0
LINE
  5
9B7C
  8
DANMEN
  6
CONTINUOUS
 10
372.484217
 20
261.800544
 30
0.0
 11
449.484217
 21
261.800544
 31
0.0
  0
LINE
  5
9B7D
  8
DANMEN
  6
CONTINUOUS
 10
372.484217
 20
251.800544
 30
0.0
 11
449.484217
 21
251.800544
 31
0.0
  0
LINE
  5
9B7E
  8
DANMEN
  6
CONTINUOUS
 10
402.984217
 20
251.300544
 30
0.0
 11
449.484217
 21
251.300544
 31
0.0
  0
LINE
  5
9B7F
  8
DANMEN
  6
CONTINUOUS
 10
402.984217
 20
248.30054399999989
 30
0.0
 11
449.484217
 21
248.30054399999989
 31
0.0
  0
LINE
  5
9B80
  8
DANMEN
  6
CONTINUOUS
 10
402.984217
 20
267.600548
 30
0.0
 11
449.484217
 21
267.600548
 31
0.0
  0
LINE
  5
9B81
  8
DANMEN
  6
CONTINUOUS
 10
402.984217
 20
270.60054799999989
 30
0.0
 11
449.484217
 21
270.60054799999989
 31
0.0
  0
LINE
  5
9B82
  8
DANMEN
  6
CONTINUOUS
 10
402.984217
 20
271.800544
 30
0.0
 11
449.484217
 21
271.800544
 31
0.0
  0
LINE
  5
9B83
  8
DANMEN
  6
CONTINUOUS
 10
407.275507
 20
251.300544
 30
0.0
 11
402.984217
 21
251.300544
 31
0.0
  0
LINE
  5
9B84
  8
DANMEN
  6
CONTINUOUS
 10
407.275507
 20
248.30054399999989
 30
0.0
 11
402.984217
 21
248.30054399999989
 31
0.0
  0
LINE
  5
9B85
  8
DANMEN
  6
CONTINUOUS
 10
372.484217
 20
267.70054399999992
 30
0.0
 11
372.484217
 21
249.1005439999999
 31
0.0
  0
ARC
  5
9B86
  8
DANMEN
  6
CONTINUOUS
 10
377.70771500000001
 20
249.6005439999999
 30
0.0
 40
0.5
 50
270.0
 51
24.443954999999999
  0
ARC
  5
9B87
  8
DANMEN
  6
CONTINUOUS
 10
382.484217
 20
249.147671
 30
0.0
 40
1.0
 50
279.46232199999997
 51
0.0
  0
LINE
  5
9B88
  8
DANMEN
  6
CONTINUOUS
 10
377.565853
 20
247.31415000000001
 30
0.0
 11
382.64861599999989
 21
248.16127700000001
 31
0.0
  0
LINE
  5
9B89
  8
DANMEN
  6
CONTINUOUS
 10
372.484217
 20
247.300544
 30
0.0
 11
377.401454
 21
247.300544
 31
0.0
  0
ARC
  5
9B8D
  8
DANMEN
  6
CONTINUOUS
 10
377.401454
 20
248.30054399999989
 30
0.0
 40
1.0
 50
270.0
 51
279.46232199999997
  0
LINE
  5
9B8F
  8
DANMEN
  6
CONTINUOUS
 10
378.40995800000002
 20
251.146254
 30
0.0
 11
382.64861599999989
 21
250.43981099999991
 31
0.0
  0
LINE
  5
9B90
  8
DANMEN
  6
CONTINUOUS
 10
372.484217
 20
249.1005439999999
 30
0.0
 11
377.70771500000001
 21
249.1005439999999
 31
0.0
  0
ARC
  5
9B96
  8
DANMEN
  6
CONTINUOUS
 10
378.3277589999999
 20
250.6530569999999
 30
0.0
 40
0.5
 50
80.537678000000014
 51
204.44395499999999
  0
LINE
  5
9B97
  8
DANMEN
  6
CONTINUOUS
 10
377.87257499999993
 20
250.44615499999989
 30
0.0
 11
378.16289799999993
 21
249.807445
 31
0.0
  0
ARC
  5
9B99
  8
DANMEN
  6
CONTINUOUS
 10
382.484217
 20
249.453417
 30
0.0
 40
1.0
 50
0.0
 51
80.537678000000014
  0
LINE
  5
9B9A
  8
DANMEN
  6
CONTINUOUS
 10
383.48421699999989
 20
249.453417
 30
0.0
 11
383.48421699999989
 21
249.147671
 31
0.0
  0
LINE
  5
9B9B
  8
DANMEN
  6
CONTINUOUS
 10
402.984217
 20
251.300544
 30
0.0
 11
402.984217
 21
248.30054399999989
 31
0.0
  0
LINE
  5
9BA0
  8
DANMEN
  6
CONTINUOUS
 10
386.984217
 20
268.80054399999989
 30
0.0
 11
402.984217
 21
268.80054399999989
 31
0.0
  0
LINE
  5
9BA1
  8
DANMEN
  6
CONTINUOUS
 10
377.48421699999989
 20
267.15054399999991
 30
0.0
 11
386.984217
 21
267.15054399999991
 31
0.0
  0
LINE
  5
9BA2
  8
DANMEN
  6
CONTINUOUS
 10
377.48421699999989
 20
267.15054399999991
 30
0.0
 11
377.48421699999989
 21
266.300544
 31
0.0
  0
LINE
  5
9BA3
  8
DANMEN
  6
CONTINUOUS
 10
376.484217
 20
267.15054399999991
 30
0.0
 11
376.484217
 21
265.800544
 31
0.0
  0
ARC
  5
9BA5
  8
DANMEN
  6
CONTINUOUS
 10
376.98421699999989
 20
266.300544
 30
0.0
 40
0.5
 50
270.0
 51
0.0
  0
LINE
  5
9BA7
  8
DANMEN
  6
CONTINUOUS
 10
376.484217
 20
265.800544
 30
0.0
 11
376.98421699999989
 21
265.800544
 31
0.0
  0
LINE
  5
9BA8
  8
DANMEN
  6
CONTINUOUS
 10
374.484217
 20
267.15054399999991
 30
0.0
 11
376.484217
 21
267.15054399999991
 31
0.0
  0
LINE
  5
9BAC
  8
DANMEN
  6
CONTINUOUS
 10
372.484217
 20
267.70054399999992
 30
0.0
 11
374.484217
 21
267.70054399999992
 31
0.0
  0
LINE
  5
9BAD
  8
DANMEN
  6
CONTINUOUS
 10
374.484217
 20
267.70054399999992
 30
0.0
 11
374.484217
 21
267.15054399999991
 31
0.0
  0
ARC
  5
9BB1
  8
DANMEN
  6
CONTINUOUS
 10
386.984217
 20
267.65054399999991
 30
0.0
 40
0.5
 50
270.0
 51
0.0
  0
ARC
  5
9BB3
  8
DANMEN
  6
CONTINUOUS
 10
386.984217
 20
268.300544
 30
0.0
 40
0.5
 50
0.0
 51
90.0
  0
LINE
  5
9BB4
  8
DANMEN
  6
CONTINUOUS
 10
387.48421699999989
 20
268.300544
 30
0.0
 11
387.48421699999989
 21
267.65054399999991
 31
0.0
  0
LINE
  5
9BB5
  8
DANMEN
  6
CONTINUOUS
 10
402.984217
 20
271.800544
 30
0.0
 11
402.984217
 21
267.600548
 31
0.0
  0
ARC
  5
9BB6
  8
DANMEN
  6
CONTINUOUS
 10
404.98421699999989
 20
249.800544
 30
0.0
 40
3.0
 50
336.42184199999991
 51
23.578178000000001
  0
ARC
  5
9BB7
  8
DANMEN
  6
CONTINUOUS
 10
407.275507
 20
248.800544
 30
0.0
 40
0.5
 50
270.000291
 51
336.42195099999992
  0
ARC
  5
9BBB
  8
DANMEN
  6
CONTINUOUS
 10
407.275507
 20
250.800544
 30
0.0
 40
0.5
 50
23.578068999999989
 51
89.999763000000002
  0
ARC
  5
9BBE
  8
DANMEN
  6
CONTINUOUS
 10
407.38421099999999
 20
271.20053799999988
 30
0.0
 40
0.6
 50
270.0000179999999
 51
90.000037000000006
  0
LINE
  5
9BBF
  8
DANMEN
  6
CONTINUOUS
 10
452.484217
 20
251.300544
 30
0.0
 11
471.48420199999993
 21
251.300544
 31
0.0
  0
LINE
  5
9BC0
  8
DANMEN
  6
CONTINUOUS
 10
452.484217
 20
248.30054399999989
 30
0.0
 11
471.48420199999993
 21
248.30054399999989
 31
0.0
  0
LINE
  5
9BC1
  8
DANMEN
  6
CONTINUOUS
 10
498.984217
 20
271.800544
 30
0.0
 11
452.484217
 21
271.800544
 31
0.0
  0
LINE
  5
9BC2
  8
DANMEN
  6
CONTINUOUS
 10
498.984217
 20
270.60054799999989
 30
0.0
 11
452.484217
 21
270.60054799999989
 31
0.0
  0
LINE
  5
9BC3
  8
DANMEN
  6
CONTINUOUS
 10
498.984217
 20
267.600548
 30
0.0
 11
452.484217
 21
267.600548
 31
0.0
  0
LINE
  5
9BC4
  8
DANMEN
  6
CONTINUOUS
 10
467.19291199999998
 20
251.300544
 30
0.0
 11
471.48420199999993
 21
251.300544
 31
0.0
  0
LINE
  5
9BC5
  8
DANMEN
  6
CONTINUOUS
 10
467.19291199999998
 20
248.30054399999989
 30
0.0
 11
471.48420199999993
 21
248.30054399999989
 31
0.0
  0
ARC
  5
9BC7
  8
DANMEN
  6
CONTINUOUS
 10
469.48420199999998
 20
249.800544
 30
0.0
 40
3.0
 50
156.42182199999991
 51
203.578158
  0
ARC
  5
9BC8
  8
DANMEN
  6
CONTINUOUS
 10
467.19291199999998
 20
248.800544
 30
0.0
 40
0.5
 50
203.57804899999999
 51
269.999709
  0
ARC
  5
9BCC
  8
DANMEN
  6
CONTINUOUS
 10
467.19291199999998
 20
250.800544
 30
0.0
 40
0.5
 50
90.000236999999984
 51
156.421931
  0
LINE
  5
9BCF
  8
DANMEN
  6
CONTINUOUS
 10
471.48420199999993
 20
251.300544
 30
0.0
 11
471.48420199999993
 21
248.30054399999989
 31
0.0
  0
LINE
  5
9BD3
  8
DANMEN
  6
CONTINUOUS
 10
486.98420199999998
 20
248.30054399999989
 30
0.0
 11
486.98420199999998
 21
251.300544
 31
0.0
  0
ARC
  5
9BD4
  8
DANMEN
  6
CONTINUOUS
 10
494.58422300000012
 20
271.20053799999988
 30
0.0
 40
0.6
 50
89.999962999999994
 51
269.99998199999987
  0
LINE
  5
9BD5
  8
DANMEN
  6
CONTINUOUS
 10
498.984217
 20
271.800544
 30
0.0
 11
498.984217
 21
267.600548
 31
0.0
  0
LINE
  5
9BD6
  8
SUNPO
  6
BYBLOCK
 10
193.915322
 20
304.53523999999999
 30
0.0
 11
193.915322
 21
339.53523999999999
 31
0.0
  0
LINE
  5
9BD7
  8
DANMEN
  6
CONTINUOUS
 10
542.83421699999985
 20
267.15054399999991
 30
0.0
 11
531.48421699999994
 21
267.15054399999991
 31
0.0
  0
LINE
  5
9BD8
  8
DANMEN
  6
CONTINUOUS
 10
514.98421699999994
 20
268.80054399999989
 30
0.0
 11
543.98421699999994
 21
268.80054399999989
 31
0.0
  0
LINE
  5
9BD9
  8
DANMEN
  6
CONTINUOUS
 10
514.98421699999994
 20
267.15054399999991
 30
0.0
 11
527.48421699999994
 21
267.15054399999991
 31
0.0
  0
ARC
  5
9BDA
  8
DANMEN
  6
CONTINUOUS
 10
514.98421699999994
 20
267.65054399999991
 30
0.0
 40
0.5
 50
180.0
 51
270.0
  0
ARC
  5
9BDB
  8
DANMEN
  6
CONTINUOUS
 10
514.98421699999994
 20
268.300544
 30
0.0
 40
0.5
 50
90.0
 51
180.0
  0
LINE
  5
9BDE
  8
DANMEN
  6
CONTINUOUS
 10
514.48421699999994
 20
268.300544
 30
0.0
 11
514.48421699999994
 21
267.65054399999991
 31
0.0
  0
LINE
  5
9BE2
  8
DANMEN
  6
CONTINUOUS
 10
527.48421699999994
 20
267.70054399999992
 30
0.0
 11
529.48421699999994
 21
267.70054399999992
 31
0.0
  0
LINE
  5
9BE3
  8
DANMEN
  6
CONTINUOUS
 10
527.48421699999994
 20
267.70054399999992
 30
0.0
 11
527.48421699999994
 21
267.15054399999991
 31
0.0
  0
ARC
  5
9BE6
  8
DANMEN
  6
CONTINUOUS
 10
543.98421699999994
 20
268.300544
 30
0.0
 40
0.5
 50
359.99998099999988
 51
90.000018000000011
  0
LINE
  5
9BE9
  8
SUNPO
  6
BYBLOCK
 10
200.91532199999989
 20
259.03523999999987
 30
0.0
 11
203.915322
 21
259.03523999999987
 31
0.0
  0
ARC
  5
9BEA
  8
SUNPO
  6
BYBLOCK
 10
200.91532199999989
 20
259.03523999999987
 30
0.0
 40
0.145
 50
0.0
 51
180.0
  0
ARC
  5
9BEB
  8
SUNPO
  6
BYBLOCK
 10
200.91532199999989
 20
259.03523999999987
 30
0.0
 40
0.145
 50
180.0
 51
0.0
  0
TEXT
  5
9BEC
  8
SUNPO
  6
CONTINUOUS
 10
201.581988
 20
259.53523999999987
 30
0.0
 40
2.5
  1
3
  7
MX_NOTE_STANDARD
  0
ARC
  5
9BF1
  8
SUNPO
  6
BYBLOCK
 10
203.915322
 20
259.03523999999987
 30
0.0
 40
0.145
 50
180.0
 51
0.0
  0
ARC
  5
9BF2
  8
SUNPO
  6
BYBLOCK
 10
203.915322
 20
259.03523999999987
 30
0.0
 40
0.145
 50
0.0
 51
180.0
  0
ARC
  5
9BF3
  8
SUNPO
  6
BYBLOCK
 10
203.915322
 20
259.03523999999987
 30
0.0
 40
0.145
 50
0.0
 51
180.0
  0
ARC
  5
9BF4
  8
SUNPO
  6
BYBLOCK
 10
203.915322
 20
259.03523999999987
 30
0.0
 40
0.145
 50
180.0
 51
0.0
  0
LINE
  5
9BF5
  8
SUNPO
  6
BYBLOCK
 10
202.415322
 20
304.53523999999999
 30
0.0
 11
193.915322
 21
304.53523999999999
 31
0.0
  0
ARC
  5
9BF6
  8
SUNPO
  6
BYBLOCK
 10
193.915322
 20
304.53523999999999
 30
0.0
 40
0.145
 50
90.0
 51
270.0
  0
ARC
  5
9BF7
  8
SUNPO
  6
BYBLOCK
 10
193.915322
 20
304.53523999999999
 30
0.0
 40
0.145
 50
270.0
 51
90.0
  0
TEXT
  5
9BF8
  8
SUNPO
  6
CONTINUOUS
 10
193.41532199999989
 20
319.95190700000001
 30
0.0
 40
2.5
  1
35
 50
90.0
  7
MX_NOTE_STANDARD
  0
LINE
  5
9BFA
  8
SUNPO
  6
BYBLOCK
 10
202.415322
 20
339.53523999999999
 30
0.0
 11
193.915322
 21
339.53523999999999
 31
0.0
  0
LINE
  5
9BFB
  8
SUNPO
  6
BYBLOCK
 10
202.415322
 20
339.53523999999999
 30
0.0
 11
193.915322
 21
339.53523999999999
 31
0.0
  0
LINE
  5
9BFC
  8
SUNPO
  6
BYBLOCK
 10
193.915322
 20
344.53524099999998
 30
0.0
 11
193.915322
 21
354.53524499999997
 31
0.0
  0
LINE
  5
9BFD
  8
SUNPO
  6
BYBLOCK
 10
193.915322
 20
339.53523999999999
 30
0.0
 11
193.915322
 21
344.53524099999998
 31
0.0
  0
TEXT
  5
9BFE
  8
SUNPO
  6
CONTINUOUS
 10
193.41532199999989
 20
341.201908
 30
0.0
 40
2.5
  1
5
 50
90.0
  7
MX_NOTE_STANDARD
  0
ARC
  5
9C00
  8
SUNPO
  6
BYBLOCK
 10
193.915322
 20
339.53523999999999
 30
0.0
 40
0.145
 50
90.0
 51
270.0
  0
ARC
  5
9C01
  8
SUNPO
  6
BYBLOCK
 10
193.915322
 20
339.53523999999999
 30
0.0
 40
0.145
 50
270.0
 51
90.0
  0
ARC
  5
9C02
  8
SUNPO
  6
BYBLOCK
 10
193.915322
 20
339.53523999999999
 30
0.0
 40
0.145
 50
270.0
 51
90.0
  0
ARC
  5
9C03
  8
SUNPO
  6
BYBLOCK
 10
193.915322
 20
339.53523999999999
 30
0.0
 40
0.145
 50
90.0
 51
270.0
  0
TEXT
  5
9C04
  8
SUNPO
  6
CONTINUOUS
 10
193.41532199999989
 20
348.07690999999988
 30
0.0
 40
2.5
  1
10
 50
90.0
  7
MX_NOTE_STANDARD
  0
ARC
  5
9C06
  8
SUNPO
  6
BYBLOCK
 10
193.915322
 20
344.53524099999998
 30
0.0
 40
0.145
 50
90.0
 51
270.0
  0
ARC
  5
9C07
  8
SUNPO
  6
BYBLOCK
 10
193.915322
 20
344.53524099999998
 30
0.0
 40
0.145
 50
270.0
 51
90.0
  0
ARC
  5
9C08
  8
SUNPO
  6
BYBLOCK
 10
193.915322
 20
344.53524099999998
 30
0.0
 40
0.145
 50
270.0
 51
90.0
  0
ARC
  5
9C09
  8
SUNPO
  6
BYBLOCK
 10
193.915322
 20
344.53524099999998
 30
0.0
 40
0.145
 50
90.0
 51
270.0
  0
ARC
  5
9C0B
  8
SUNPO
  6
BYBLOCK
 10
193.915322
 20
354.53524499999997
 30
0.0
 40
0.145
 50
270.0
 51
90.0
  0
ARC
  5
9C0C
  8
SUNPO
  6
BYBLOCK
 10
193.915322
 20
354.53524499999997
 30
0.0
 40
0.145
 50
90.0
 51
270.0
  0
LINE
  5
9C0F
  8
SUNPO
  6
BYBLOCK
 10
357.484217
 20
278.800544
 30
0.0
 11
387.48421699999989
 21
278.800544
 31
0.0
  0
LINE
  5
9C10
  8
SUNPO
  6
BYBLOCK
 10
333.915322
 20
344.53523999999987
 30
0.0
 11
333.915322
 21
304.53523999999999
 31
0.0
  0
TEXT
  5
9C11
  8
SUNPO
  6
CONTINUOUS
 10
251.415322
 20
259.53523999999987
 30
0.0
 40
2.5
  1
100
  7
MX_NOTE_STANDARD
  0
LINE
  5
9C12
  8
SUNPO
  6
CONTINUOUS
 10
333.915322
 20
304.53523999999999
 30
0.0
 11
333.915322
 21
270.87896000000001
 31
0.0
  0
LINE
  5
9C13
  8
SUNPO
  6
CONTINUOUS
 10
329.91532199999989
 20
255.67628500000001
 30
0.0
 11
337.915322
 21
255.67628500000001
 31
0.0
  0
LINE
  5
9C14
  8
SUNPO
  6
CONTINUOUS
 10
329.91532199999989
 20
261.17628500000001
 30
0.0
 11
337.915322
 21
261.17628500000001
 31
0.0
  0
LINE
  5
9C15
  8
SUNPO
  6
CONTINUOUS
 10
329.91532199999989
 20
253.67628500000001
 30
0.0
 11
337.915322
 21
253.67628500000001
 31
0.0
  0
LINE
  5
9C16
  8
SUNPO
  6
CONTINUOUS
 10
329.91532199999989
 20
263.18923100000001
 30
0.0
 11
329.91532199999989
 21
259.45618400000001
 31
0.0
  0
ARC
  5
9C18
  8
SUNPO
  6
BYBLOCK
 10
303.915322
 20
259.03523999999987
 30
0.0
 40
0.145
 50
180.0
 51
0.0
  0
ARC
  5
9C19
  8
SUNPO
  6
BYBLOCK
 10
303.915322
 20
259.03523999999987
 30
0.0
 40
0.145
 50
0.0
 51
180.0
  0
LINE
  5
9C1A
  8
SUNPO
  6
CONTINUOUS
 10
329.91532199999989
 20
257.07627899999989
 30
0.0
 11
329.91532199999989
 21
251.8789359999999
 31
0.0
  0
LINE
  5
9C1B
  8
SUNPO
  6
CONTINUOUS
 10
333.915322
 20
261.17628500000001
 30
0.0
 11
333.915322
 21
255.67628500000001
 31
0.0
  0
LINE
  5
9C1C
  8
SUNPO
  6
CONTINUOUS
 10
337.915322
 20
263.18923100000001
 30
0.0
 11
337.915322
 21
259.45618400000001
 31
0.0
  0
LINE
  5
9C1D
  8
SUNPO
  6
CONTINUOUS
 10
337.915322
 20
257.07627899999989
 30
0.0
 11
337.915322
 21
251.8789359999999
 31
0.0
  0
LINE
  5
9C1F
  8
SUNPO
  6
BYBLOCK
 10
347.484217
 20
278.800544
 30
0.0
 11
357.484217
 21
278.800544
 31
0.0
  0
LINE
  5
9C20
  8
SUNPO
  6
CONTINUOUS
 10
332.71524899999997
 20
269.19154400000002
 30
0.0
 11
332.71524899999997
 21
264.4030009999999
 31
0.0
  0
LINE
  5
9C21
  8
SUNPO
  6
CONTINUOUS
 10
335.11524300000002
 20
269.19154400000002
 30
0.0
 11
335.11524300000002
 21
264.4030009999999
 31
0.0
  0
ARC
  5
9C22
  8
SUNPO
  6
BYBLOCK
 10
347.484217
 20
278.800544
 30
0.0
 40
0.145
 50
0.0
 51
180.0
  0
ARC
  5
9C23
  8
SUNPO
  6
BYBLOCK
 10
347.484217
 20
278.800544
 30
0.0
 40
0.145
 50
180.0
 51
0.0
  0
LINE
  5
9C24
  8
SUNPO
  6
BYBLOCK
 10
357.484217
 20
270.300544
 30
0.0
 11
357.484217
 21
278.800544
 31
0.0
  0
LINE
  5
9C25
  8
SUNPO
  6
BYBLOCK
 10
357.484217
 20
270.300544
 30
0.0
 11
357.484217
 21
278.800544
 31
0.0
  0
TEXT
  5
9C28
  8
SUNPO
  6
CONTINUOUS
 10
351.02588300000002
 20
279.30054399999989
 30
0.0
 40
2.5
  1
10
  7
MX_NOTE_STANDARD
  0
ARC
  5
9C2A
  8
SUNPO
  6
BYBLOCK
 10
357.484217
 20
278.800544
 30
0.0
 40
0.145
 50
180.0
 51
0.0
  0
ARC
  5
9C2B
  8
SUNPO
  6
BYBLOCK
 10
357.484217
 20
278.800544
 30
0.0
 40
0.145
 50
0.0
 51
180.0
  0
ARC
  5
9C2C
  8
SUNPO
  6
BYBLOCK
 10
357.484217
 20
278.800544
 30
0.0
 40
0.145
 50
0.0
 51
180.0
  0
ARC
  5
9C2D
  8
SUNPO
  6
BYBLOCK
 10
357.484217
 20
278.800544
 30
0.0
 40
0.145
 50
180.0
 51
0.0
  0
LINE
  5
9C2E
  8
SUNPO
  6
BYBLOCK
 10
305.41532199999989
 20
304.53523999999999
 30
0.0
 11
333.915322
 21
304.53523999999999
 31
0.0
  0
LINE
  5
9C2F
  8
SUNPO
  6
CONTINUOUS
 10
328.915322
 20
299.53523999999987
 30
0.0
 11
333.915322
 21
304.53523999999999
 31
0.0
  0
LINE
  5
9C30
  8
SUNPO
  6
CONTINUOUS
 10
338.915322
 20
299.53523999999987
 30
0.0
 11
328.915322
 21
299.53523999999987
 31
0.0
  0
TEXT
  5
9C31
  8
SUNPO
  6
CONTINUOUS
 10
333.415322
 20
322.66023999999987
 30
0.0
 40
2.5
  1
40
 50
90.0
  7
MX_NOTE_STANDARD
  0
LINE
  5
9C34
  8
SUNPO
  6
CONTINUOUS
 10
333.915322
 20
304.53523999999999
 30
0.0
 11
338.915322
 21
299.53523999999987
 31
0.0
  0
LINE
  5
9C3B
  8
SUNPO
  6
BYBLOCK
 10
305.41532199999989
 20
344.53523999999987
 30
0.0
 11
333.915322
 21
344.53523999999987
 31
0.0
  0
LINE
  5
9C3C
  8
SUNPO
  6
BYBLOCK
 10
305.41532199999989
 20
354.53524499999997
 30
0.0
 11
333.915322
 21
354.53524499999997
 31
0.0
  0
LINE
  5
9C3D
  8
SUNPO
  6
BYBLOCK
 10
305.41532199999989
 20
344.53523999999987
 30
0.0
 11
333.915322
 21
344.53523999999987
 31
0.0
  0
TEXT
  5
9C3E
  8
SUNPO
  6
CONTINUOUS
 10
333.415322
 20
348.07690999999988
 30
0.0
 40
2.5
  1
10
 50
90.0
  7
MX_NOTE_STANDARD
  0
LINE
  5
9C42
  8
SUNPO
  6
BYBLOCK
 10
333.915322
 20
354.53524499999997
 30
0.0
 11
333.915322
 21
344.53523999999987
 31
0.0
  0
ARC
  5
9C44
  8
SUNPO
  6
BYBLOCK
 10
333.915322
 20
344.53523999999987
 30
0.0
 40
0.145
 50
270.0
 51
90.0
  0
ARC
  5
9C45
  8
SUNPO
  6
BYBLOCK
 10
333.915322
 20
344.53523999999987
 30
0.0
 40
0.145
 50
90.0
 51
270.0
  0
ARC
  5
9C46
  8
SUNPO
  6
BYBLOCK
 10
333.915322
 20
344.53523999999987
 30
0.0
 40
0.145
 50
90.0
 51
270.0
  0
ARC
  5
9C47
  8
SUNPO
  6
BYBLOCK
 10
333.915322
 20
344.53523999999987
 30
0.0
 40
0.145
 50
270.0
 51
90.0
  0
ARC
  5
9C48
  8
SUNPO
  6
BYBLOCK
 10
333.915322
 20
354.53524499999997
 30
0.0
 40
0.145
 50
270.0
 51
90.0
  0
ARC
  5
9C49
  8
SUNPO
  6
BYBLOCK
 10
333.915322
 20
354.53524499999997
 30
0.0
 40
0.145
 50
90.0
 51
270.0
  0
TEXT
  5
9C4A
  8
SUNPO
  6
CONTINUOUS
 10
370.609217
 20
279.30054399999989
 30
0.0
 40
2.5
  1
30
  7
MX_NOTE_STANDARD
  0
LINE
  5
9C4B
  8
SUNPO
  6
BYBLOCK
 10
387.48421699999989
 20
270.300544
 30
0.0
 11
387.48421699999989
 21
278.800544
 31
0.0
  0
ARC
  5
9C4E
  8
SUNPO
  6
BYBLOCK
 10
387.48421699999989
 20
278.800544
 30
0.0
 40
0.145
 50
180.0
 51
0.0
  0
ARC
  5
9C4F
  8
SUNPO
  6
BYBLOCK
 10
387.48421699999989
 20
278.800544
 30
0.0
 40
0.145
 50
0.0
 51
180.0
  0
LINE
  5
9C50
  8
SUNPO
  6
BYBLOCK
 10
452.484217
 20
271.800544
 30
0.0
 11
452.484217
 21
274.91584
 31
0.0
  0
LINE
  5
9C52
  8
SUNPO
  6
BYBLOCK
 10
452.484217
 20
268.80054399999989
 30
0.0
 11
452.484217
 21
271.800544
 31
0.0
  0
ARC
  5
9C54
  8
SUNPO
  6
BYBLOCK
 10
452.484217
 20
268.80054399999989
 30
0.0
 40
0.145
 50
270.0
 51
90.0
  0
ARC
  5
9C55
  8
SUNPO
  6
BYBLOCK
 10
452.484217
 20
268.80054399999989
 30
0.0
 40
0.145
 50
90.0
 51
270.0
  0
ARC
  5
9C56
  8
SUNPO
  6
BYBLOCK
 10
452.484217
 20
268.80054399999989
 30
0.0
 40
0.145
 50
90.0
 51
270.0
  0
ARC
  5
9C57
  8
SUNPO
  6
BYBLOCK
 10
452.484217
 20
268.80054399999989
 30
0.0
 40
0.145
 50
270.0
 51
90.0
  0
ARC
  5
9C58
  8
SUNPO
  6
BYBLOCK
 10
452.484217
 20
271.800544
 30
0.0
 40
0.145
 50
270.0
 51
90.0
  0
ARC
  5
9C59
  8
SUNPO
  6
BYBLOCK
 10
452.484217
 20
271.800544
 30
0.0
 40
0.145
 50
90.0
 51
270.0
  0
TEXT
  5
9C5A
  8
SUNPO
  6
CONTINUOUS
 10
451.984217
 20
272.83250699999991
 30
0.0
 40
2.5
  1
3
 50
90.0
  7
MX_NOTE_STANDARD
  0
LINE
  5
9C5C
  8
SUNPO
  6
BYBLOCK
 10
545.98421699999994
 20
268.80054399999989
 30
0.0
 11
564.48421699999994
 21
268.80054399999989
 31
0.0
  0
TEXT
  5
9C5D
  8
SUNPO
  6
CONTINUOUS
 10
563.98421699999994
 20
239.21721099999999
 30
0.0
 40
2.5
  1
55
 50
90.0
  7
MX_NOTE_STANDARD
  0
LINE
  5
9C5E
  8
SUNPO
  6
BYBLOCK
 10
514.48421699999994
 20
278.800544
 30
0.0
 11
544.48421699999994
 21
278.800544
 31
0.0
  0
TEXT
  5
9C5F
  8
SUNPO
  6
CONTINUOUS
 10
527.60921699999994
 20
279.30054399999989
 30
0.0
 40
2.5
  1
30
  7
MX_NOTE_STANDARD
  0
LINE
  5
9C62
  8
SUNPO
  6
BYBLOCK
 10
514.48421699999994
 20
270.300544
 30
0.0
 11
514.48421699999994
 21
278.800544
 31
0.0
  0
ARC
  5
9C64
  8
SUNPO
  6
BYBLOCK
 10
514.48421699999994
 20
278.800544
 30
0.0
 40
0.145
 50
0.0
 51
180.0
  0
ARC
  5
9C65
  8
SUNPO
  6
BYBLOCK
 10
514.48421699999994
 20
278.800544
 30
0.0
 40
0.145
 50
180.0
 51
0.0
  0
LINE
  5
9C66
  8
SUNPO
  6
BYBLOCK
 10
544.48421699999994
 20
278.800544
 30
0.0
 11
554.48421699999994
 21
278.800544
 31
0.0
  0
LINE
  5
9C67
  8
SUNPO
  6
BYBLOCK
 10
544.48421699999994
 20
270.300544
 30
0.0
 11
544.48421699999994
 21
278.800544
 31
0.0
  0
LINE
  5
9C68
  8
SUNPO
  6
BYBLOCK
 10
544.48421699999994
 20
270.300544
 30
0.0
 11
544.48421699999994
 21
278.800544
 31
0.0
  0
ARC
  5
9C6D
  8
SUNPO
  6
BYBLOCK
 10
544.48421699999994
 20
278.800544
 30
0.0
 40
0.145
 50
0.0
 51
180.0
  0
ARC
  5
9C6E
  8
SUNPO
  6
BYBLOCK
 10
544.48421699999994
 20
278.800544
 30
0.0
 40
0.145
 50
180.0
 51
0.0
  0
ARC
  5
9C6F
  8
SUNPO
  6
BYBLOCK
 10
544.48421699999994
 20
278.800544
 30
0.0
 40
0.145
 50
180.0
 51
0.0
  0
ARC
  5
9C70
  8
SUNPO
  6
BYBLOCK
 10
544.48421699999994
 20
278.800544
 30
0.0
 40
0.145
 50
0.0
 51
180.0
  0
TEXT
  5
9C71
  8
SUNPO
  6
CONTINUOUS
 10
548.02588300000002
 20
279.30054399999989
 30
0.0
 40
2.5
  1
10
  7
MX_NOTE_STANDARD
  0
ARC
  5
9C73
  8
SUNPO
  6
BYBLOCK
 10
554.48421699999994
 20
278.800544
 30
0.0
 40
0.145
 50
180.0
 51
0.0
  0
ARC
  5
9C74
  8
SUNPO
  6
BYBLOCK
 10
554.48421699999994
 20
278.800544
 30
0.0
 40
0.145
 50
0.0
 51
180.0
  0
ARC
  5
9C75
  8
SUNPO
  6
BYBLOCK
 10
564.48421699999994
 20
268.80054399999989
 30
0.0
 40
0.145
 50
270.0
 51
90.0
  0
ARC
  5
9C76
  8
SUNPO
  6
BYBLOCK
 10
564.48421699999994
 20
268.80054399999989
 30
0.0
 40
0.145
 50
90.0
 51
270.0
  0
ENDSEC
  0
EOF
