  0
SECTION
  2
HEADER
  9
$ACADVER
  1
AC1009
  9
$INSBASE
 10
0.0
 20
0.0
 30
0.0
  9
$EXTMIN
 10
4.9647528724485701
 20
4.9526357841459676
 30
-0.0015258207003583
  9
$EXTMAX
 10
755.01472935615402
 20
505.00997483962999
 30
0.0000000349246037
  9
$LIMMIN
 10
-210.0
 20
-148.5
  9
$LIMMAX
 10
210.0
 20
148.5
  9
$ORTHOMODE
 70
     0
  9
$REGENMODE
 70
     1
  9
$FILLMODE
 70
     1
  9
$QTEXTMODE
 70
     0
  9
$MIRRTEXT
 70
     1
  9
$DRAGMODE
 70
     2
  9
$LTSCALE
 40
0.5
  9
$OSMODE
 70
  3071
  9
$ATTMODE
 70
     1
  9
$TEXTSIZE
 40
0.2
  9
$TRACEWID
 40
0.05
  9
$TEXTSTYLE
  7
STANDARD
  9
$CLAYER
  8
0
  9
$CELTYPE
  6
CONTINUOUS
  9
$CECOLOR
 62
   256
  9
$DIMSCALE
 40
1.0
  9
$DIMASZ
 40
2.319999999999999
  9
$DIMEXO
 40
1.5
  9
$DIMDLI
 40
3.75
  9
$DIMRND
 40
0.0
  9
$DIMDLE
 40
0.0
  9
$DIMEXE
 40
0.0
  9
$DIMTP
 40
0.0
  9
$DIMTM
 40
0.0
  9
$DIMTXT
 40
2.5
  9
$DIMCEN
 40
2.5
  9
$DIMTSZ
 40
0.0
  9
$DIMTOL
 70
     0
  9
$DIMLIM
 70
     0
  9
$DIMTIH
 70
     0
  9
$DIMTOH
 70
     0
  9
$DIMSE1
 70
     1
  9
$DIMSE2
 70
     1
  9
$DIMTAD
 70
     1
  9
$DIMZIN
 70
     0
  9
$DIMBLK
  1

  9
$DIMASO
 70
     1
  9
$DIMSHO
 70
     1
  9
$DIMPOST
  1

  9
$DIMAPOST
  1

  9
$DIMALT
 70
     0
  9
$DIMALTD
 70
     4
  9
$DIMALTF
 40
0.0394
  9
$DIMLFAC
 40
1.0
  9
$DIMTOFL
 70
     1
  9
$DIMTVP
 40
0.0
  9
$DIMTIX
 70
     0
  9
$DIMSOXD
 70
     0
  9
$DIMSAH
 70
     1
  9
$DIMBLK1
  1

  9
$DIMBLK2
  1

  9
$DIMSTYLE
  2
MXDIMSTYLE
  9
$DIMCLRD
 70
     0
  9
$DIMCLRE
 70
     0
  9
$DIMCLRT
 70
     0
  9
$DIMTFAC
 40
1.0
  9
$DIMGAP
 40
1.0
  9
$LUNITS
 70
     2
  9
$LUPREC
 70
     4
  9
$SKETCHINC
 40
0.1
  9
$FILLETRAD
 40
0.0
  9
$AUNITS
 70
     0
  9
$AUPREC
 70
     0
  9
$MENU
  1
acad
  9
$ELEVATION
 40
0.0
  9
$PELEVATION
 40
0.0
  9
$THICKNESS
 40
0.0
  9
$LIMCHECK
 70
     0
  9
$BLIPMODE
 70
     0
  9
$CHAMFERA
 40
0.0
  9
$CHAMFERB
 40
0.0
  9
$SKPOLY
 70
     0
  9
$TDCREATE
 40
2452200.7321329978
  9
$TDUPDATE
 40
2454004.4943166669
  9
$TDINDWG
 40
0.0149959491
  9
$TDUSRTIMER
 40
0.0149959491
  9
$USRTIMER
 70
     1
  9
$ANGBASE
 50
0.0
  9
$ANGDIR
 70
     0
  9
$PDMODE
 70
     3
  9
$PDSIZE
 40
-100.0
  9
$PLINEWID
 40
0.0
  9
$COORDS
 70
     2
  9
$SPLFRAME
 70
     0
  9
$SPLINETYPE
 70
     6
  9
$SPLINESEGS
 70
     8
  9
$ATTDIA
 70
     0
  9
$ATTREQ
 70
     1
  9
$HANDLING
 70
 22529
  9
$HANDSEED
  5
905B
  9
$SURFTAB1
 70
     6
  9
$SURFTAB2
 70
     6
  9
$SURFTYPE
 70
     6
  9
$SURFU
 70
     6
  9
$SURFV
 70
     6
  9
$UCSNAME
  2

  9
$UCSORG
 10
0.0
 20
0.0
 30
0.0
  9
$UCSXDIR
 10
1.0
 20
0.0
 30
0.0
  9
$UCSYDIR
 10
0.0
 20
1.0
 30
0.0
  9
$PUCSNAME
  2

  9
$PUCSORG
 10
0.0
 20
0.0
 30
0.0
  9
$PUCSXDIR
 10
1.0
 20
0.0
 30
0.0
  9
$PUCSYDIR
 10
0.0
 20
1.0
 30
0.0
  9
$USERI1
 70
     0
  9
$USERI2
 70
     0
  9
$USERI3
 70
     0
  9
$USERI4
 70
     0
  9
$USERI5
 70
     0
  9
$USERR1
 40
0.0
  9
$USERR2
 40
0.0
  9
$USERR3
 40
0.0
  9
$USERR4
 40
0.0
  9
$USERR5
 40
0.0
  9
$WORLDVIEW
 70
     1
  9
$SHADEDGE
 70
     3
  9
$SHADEDIF
 70
    70
  9
$TILEMODE
 70
     1
  9
$MAXACTVP
 70
    16
  9
$PLIMCHECK
 70
     0
  9
$PEXTMIN
 10
1.0000000000000000E+020
 20
1.0000000000000000E+020
 30
1.0000000000000000E+020
  9
$PEXTMAX
 10
-1.0000000000000000E+020
 20
-1.0000000000000000E+020
 30
-1.0000000000000000E+020
  9
$PLIMMIN
 10
0.0
 20
0.0
  9
$PLIMMAX
 10
12.0
 20
9.0
  9
$UNITMODE
 70
     0
  9
$VISRETAIN
 70
     0
  9
$PLINEGEN
 70
     1
  9
$PSLTSCALE
 70
     0
  0
ENDSEC
  0
SECTION
  2
TABLES
  0
TABLE
  2
VPORT
 70
     2
  0
VPORT
  2
*ACTIVE
 70
     0
 10
0.0
 20
0.0
 11
1.0
 21
1.0
 12
102.8256401091683
 22
442.34361689814523
 13
0.0
 23
0.0
 14
1.0
 24
1.0
 15
0.0
 25
0.0
 16
0.0
 26
0.0
 36
1.0
 17
0.0
 27
0.0
 37
0.0
 40
136.5121391817525
 41
1.464761904761904
 42
50.0
 43
0.0
 44
0.0
 50
0.0
 51
0.0
 71
     0
 72
   100
 73
     1
 74
     0
 75
     0
 76
     0
 77
     0
 78
     0
  0
ENDTAB
  0
TABLE
  2
LTYPE
 70
     1
  0
LTYPE
  2
CONTINUOUS
 70
     0
  3
Solid line
 72
    65
 73
     0
 40
0.0
  0
ENDTAB
  0
TABLE
  2
LAYER
 70
     4
  0
LAYER
  2
0
 70
     0
 62
     7
  6
CONTINUOUS
  0
LAYER
  2
SUNPO
 70
     0
 62
     1
  6
CONTINUOUS
  0
LAYER
  2
DANMEN
 70
     0
 62
     7
  6
CONTINUOUS
  0
LAYER
  2
WAKU
 70
     0
 62
     3
  6
CONTINUOUS
  0
ENDTAB
  0
TABLE
  2
STYLE
 70
     2
  0
STYLE
  2
STANDARD
 70
     0
 40
0.2
 41
1.0
 50
0.0
 71
     0
 42
0.2
  3
txt.shx
  4
bigfont.shx
  0
STYLE
  2
MX_NOTE_STANDARD
 70
     0
 40
2.5
 41
1.0
 50
0.0
 71
     0
 42
2.5
  3
txt.shx
  4
extfont.shx
  0
ENDTAB
  0
TABLE
  2
VIEW
 70
     0
  0
ENDTAB
  0
TABLE
  2
UCS
 70
     0
  0
ENDTAB
  0
TABLE
  2
APPID
 70
     1
  0
APPID
  2
ACAD
 70
     0
  0
ENDTAB
  0
TABLE
  2
DIMSTYLE
 70
     1
  0
DIMSTYLE
  2
MXDIMSTYLE
 70
     0
  3

  4

  5

  6

  7

 40
1.0
 41
2.5
 42
1.5
 43
3.75
 44
0.0
 45
0.0
 46
0.0
 47
0.0
 48
0.0
140
2.5
141
2.5
142
0.0
143
0.0394
144
1.0
145
0.0
146
1.0
147
1.0
 71
     0
 72
     0
 73
     0
 74
     0
 75
     0
 76
     0
 77
     1
 78
     8
170
     0
171
     4
172
     1
173
     0
174
     0
175
     0
176
     0
177
     0
178
     0
  0
ENDTAB
  0
ENDSEC
  0
SECTION
  2
BLOCKS
  0
BLOCK
  8
0
  2
$MODEL_SPACE
 70
     0
 10
0.0
 20
0.0
 30
0.0
  3
$MODEL_SPACE
  1

  0
ENDBLK
  5
2BBC
  8
0
  0
BLOCK
 67
     1
  8
0
  2
$PAPER_SPACE
 70
     0
 10
0.0
 20
0.0
 30
0.0
  3
$PAPER_SPACE
  1

  0
ENDBLK
  5
2BB9
 67
     1
  8
0
  0
BLOCK
  8
0
  2
*U0
 70
     1
 10
0.0
 20
0.0
 30
0.0
  3
*U0
  1

  0
SOLID
  5
2AFF
  8
WAKU
  6
CONTINUOUS
 10
371.30514199999988
 20
283.60529100000002
 30
0.0
 11
370.49978199999993
 21
283.53036100000003
 31
0.0
 12
370.87498699999998
 22
283.52044899999999
 32
0.0
 13
370.87498699999998
 23
283.52044899999999
 33
0.0
  0
SOLID
  5
2B00
  8
WAKU
  6
CONTINUOUS
 10
370.193309
 20
283.63466399999999
 30
0.0
 11
370.49978199999993
 21
283.53036100000003
 31
0.0
 12
371.30514199999988
 22
283.60529100000002
 32
0.0
 13
371.30514199999988
 23
283.60529100000002
 33
0.0
  0
SOLID
  5
2B01
  8
WAKU
  6
CONTINUOUS
 10
371.77444800000001
 20
283.78177299999987
 30
0.0
 11
370.193309
 21
283.63466399999999
 31
0.0
 12
371.30514199999988
 22
283.60529100000002
 32
0.0
 13
371.30514199999988
 23
283.60529100000002
 33
0.0
  0
SOLID
  5
2B02
  8
WAKU
  6
CONTINUOUS
 10
369.96682399999997
 20
283.82952599999987
 30
0.0
 11
370.193309
 21
283.63466399999999
 31
0.0
 12
371.77444800000001
 22
283.78177299999987
 32
0.0
 13
371.77444800000001
 23
283.78177299999987
 33
0.0
  0
SOLID
  5
2B03
  8
WAKU
  6
CONTINUOUS
 10
370.59417699999989
 20
283.90949799999999
 30
0.0
 11
369.96682399999997
 21
283.82952599999987
 31
0.0
 12
371.77444800000001
 22
283.78177299999987
 32
0.0
 13
371.77444800000001
 23
283.78177299999987
 33
0.0
  0
SOLID
  5
2B04
  8
WAKU
  6
CONTINUOUS
 10
370.90129400000001
 20
283.91486300000003
 30
0.0
 11
370.59417699999989
 21
283.90949799999999
 31
0.0
 12
371.77444800000001
 22
283.78177299999987
 32
0.0
 13
371.77444800000001
 23
283.78177299999987
 33
0.0
  0
SOLID
  5
2B05
  8
WAKU
  6
CONTINUOUS
 10
370.39292699999987
 20
283.968568
 30
0.0
 11
369.96682399999997
 21
283.82952599999987
 31
0.0
 12
370.59417699999989
 22
283.90949799999999
 32
0.0
 13
370.59417699999989
 23
283.90949799999999
 33
0.0
  0
SOLID
  5
2B06
  8
WAKU
  6
CONTINUOUS
 10
371.2969839999999
 20
284.01036800000003
 30
0.0
 11
370.90129400000001
 21
283.91486300000003
 31
0.0
 12
371.77444800000001
 22
283.78177299999987
 32
0.0
 13
371.77444800000001
 23
283.78177299999987
 33
0.0
  0
SOLID
  5
2B07
  8
WAKU
  6
CONTINUOUS
 10
372.26566600000001
 20
284.04341099999988
 30
0.0
 11
371.2969839999999
 21
284.01036800000003
 31
0.0
 12
371.77444800000001
 22
283.78177299999987
 32
0.0
 13
371.77444800000001
 23
283.78177299999987
 33
0.0
  0
SOLID
  5
2B08
  8
WAKU
  6
CONTINUOUS
 10
370.27517699999993
 20
284.06647599999991
 30
0.0
 11
369.96682399999997
 21
283.82952599999987
 31
0.0
 12
370.39292699999987
 22
283.968568
 32
0.0
 13
370.39292699999987
 23
283.968568
 33
0.0
  0
SOLID
  5
2B09
  8
WAKU
  6
CONTINUOUS
 10
369.82864599999988
 20
284.10779100000002
 30
0.0
 11
369.96682399999997
 21
283.82952599999987
 31
0.0
 12
370.27517699999993
 22
284.06647599999991
 32
0.0
 13
370.27517699999993
 23
284.06647599999991
 33
0.0
  0
SOLID
  5
2B0A
  8
WAKU
  6
CONTINUOUS
 10
370.70945799999993
 20
284.14239700000002
 30
0.0
 11
369.82864599999988
 21
284.10779100000002
 31
0.0
 12
370.27517699999993
 22
284.06647599999991
 32
0.0
 13
370.27517699999993
 23
284.06647599999991
 33
0.0
  0
SOLID
  5
2B0B
  8
WAKU
  6
CONTINUOUS
 10
371.75188199999991
 20
284.20279799999992
 30
0.0
 11
371.2969839999999
 21
284.01036800000003
 31
0.0
 12
372.26566600000001
 22
284.04341099999988
 32
0.0
 13
372.26566600000001
 23
284.04341099999988
 33
0.0
  0
SOLID
  5
2B0C
  8
WAKU
  6
CONTINUOUS
 10
369.55038100000002
 20
284.245969
 30
0.0
 11
369.82864599999988
 21
284.10779100000002
 31
0.0
 12
370.70945799999993
 22
284.14239700000002
 32
0.0
 13
370.70945799999993
 23
284.14239700000002
 33
0.0
  0
SOLID
  5
2B0D
  8
WAKU
  6
CONTINUOUS
 10
371.18642799999992
 20
284.31462499999992
 30
0.0
 11
369.55038100000002
 21
284.245969
 31
0.0
 12
370.70945799999993
 22
284.14239700000002
 32
0.0
 13
370.70945799999993
 23
284.14239700000002
 33
0.0
  0
SOLID
  5
2B0E
  8
WAKU
  6
CONTINUOUS
 10
372.76075600000001
 20
284.38059500000003
 30
0.0
 11
371.75188199999991
 21
284.20279799999992
 31
0.0
 12
372.26566600000001
 22
284.04341099999988
 32
0.0
 13
372.26566600000001
 23
284.04341099999988
 33
0.0
  0
SOLID
  5
2B0F
  8
WAKU
  6
CONTINUOUS
 10
370.172911
 20
284.45185600000002
 30
0.0
 11
369.55038100000002
 21
284.245969
 31
0.0
 12
371.18642799999992
 22
284.31462499999992
 32
0.0
 13
371.18642799999992
 23
284.31462499999992
 33
0.0
  0
SOLID
  5
2B10
  8
WAKU
  6
CONTINUOUS
 10
369.35551800000002
 20
284.47245400000003
 30
0.0
 11
369.55038100000002
 21
284.245969
 31
0.0
 12
370.172911
 22
284.45185600000002
 32
0.0
 13
370.172911
 23
284.45185600000002
 33
0.0
  0
SOLID
  5
2B11
  8
WAKU
  6
CONTINUOUS
 10
372.23749700000002
 20
284.48611699999992
 30
0.0
 11
371.75188199999991
 21
284.20279799999992
 31
0.0
 12
372.76075600000001
 22
284.38059500000003
 32
0.0
 13
372.76075600000001
 23
284.38059500000003
 33
0.0
  0
SOLID
  5
2B12
  8
WAKU
  6
CONTINUOUS
 10
370.68139500000001
 20
284.53919500000001
 30
0.0
 11
370.172911
 21
284.45185600000002
 31
0.0
 12
371.18642799999992
 22
284.31462499999992
 32
0.0
 13
371.18642799999992
 23
284.31462499999992
 33
0.0
  0
SOLID
  5
2B13
  8
WAKU
  6
CONTINUOUS
 10
369.787305
 20
284.55393500000002
 30
0.0
 11
369.35551800000002
 21
284.47245400000003
 31
0.0
 12
370.172911
 22
284.45185600000002
 32
0.0
 13
370.172911
 23
284.45185600000002
 33
0.0
  0
SOLID
  5
2B14
  8
WAKU
  6
CONTINUOUS
 10
371.68776999999989
 20
284.57654500000001
 30
0.0
 11
370.68139500000001
 21
284.53919500000001
 31
0.0
 12
371.18642799999992
 22
284.31462499999992
 32
0.0
 13
371.18642799999992
 23
284.31462499999992
 33
0.0
  0
SOLID
  5
2B15
  8
WAKU
  6
CONTINUOUS
 10
369.68915499999991
 20
284.67243500000001
 30
0.0
 11
369.35551800000002
 21
284.47245400000003
 31
0.0
 12
369.787305
 22
284.55393500000002
 32
0.0
 13
369.787305
 23
284.55393500000002
 33
0.0
  0
SOLID
  5
2B16
  8
WAKU
  6
CONTINUOUS
 10
369.251215
 20
284.77892800000001
 30
0.0
 11
369.35551800000002
 21
284.47245400000003
 31
0.0
 12
369.68915499999991
 22
284.67243500000001
 32
0.0
 13
369.68915499999991
 23
284.67243500000001
 33
0.0
  0
SOLID
  5
2B17
  8
WAKU
  6
CONTINUOUS
 10
373.24153200000001
 20
284.78094099999998
 30
0.0
 11
372.23749700000002
 21
284.48611699999992
 31
0.0
 12
372.76075600000001
 22
284.38059500000003
 32
0.0
 13
372.76075600000001
 23
284.38059500000003
 33
0.0
  0
SOLID
  5
2B18
  8
WAKU
  6
CONTINUOUS
 10
371.31226299999992
 20
284.8103319999999
 30
0.0
 11
370.68139500000001
 21
284.53919500000001
 31
0.0
 12
371.68776999999989
 22
284.57654500000001
 32
0.0
 13
371.68776999999989
 23
284.57654500000001
 33
0.0
  0
SOLID
  5
2B19
  8
WAKU
  6
CONTINUOUS
 10
369.63035799999989
 20
284.873087
 30
0.0
 11
369.251215
 21
284.77892800000001
 31
0.0
 12
369.68915499999991
 22
284.67243500000001
 32
0.0
 13
369.68915499999991
 23
284.67243500000001
 33
0.0
  0
SOLID
  5
2B1A
  8
WAKU
  6
CONTINUOUS
 10
372.194232
 20
284.91809899999998
 30
0.0
 11
371.31226299999992
 21
284.8103319999999
 31
0.0
 12
371.68776999999989
 22
284.57654500000001
 32
0.0
 13
371.68776999999989
 23
284.57654500000001
 33
0.0
  0
SOLID
  5
2B1B
  8
WAKU
  6
CONTINUOUS
 10
370.26016800000002
 20
284.959969
 30
0.0
 11
369.787305
 21
284.55393500000002
 31
0.0
 12
370.172911
 22
284.45185600000002
 32
0.0
 13
370.172911
 23
284.45185600000002
 33
0.0
  0
SOLID
  5
2B1C
  8
WAKU
  6
CONTINUOUS
 10
369.86313899999999
 20
284.98818899999998
 30
0.0
 11
369.787305
 21
284.55393500000002
 31
0.0
 12
370.26016800000002
 22
284.959969
 32
0.0
 13
370.26016800000002
 23
284.959969
 33
0.0
  0
SOLID
  5
2B1D
  8
WAKU
  6
CONTINUOUS
 10
398.19400599999989
 20
285.115385
 30
0.0
 11
397.60605499999991
 21
283.49999999999989
 31
0.0
 12
401.913747
 22
283.49999999999989
 32
0.0
 13
401.913747
 23
283.49999999999989
 33
0.0
  0
SOLID
  5
2B1E
  8
WAKU
  6
CONTINUOUS
 10
401.913747
 20
283.49999999999989
 30
0.0
 11
401.42477599999989
 21
285.115385
 31
0.0
 12
398.19400599999989
 22
285.115385
 32
0.0
 13
398.19400599999989
 23
285.115385
 33
0.0
  0
SOLID
  5
2B1F
  8
WAKU
  6
CONTINUOUS
 10
369.2413029999999
 20
285.15413199999989
 30
0.0
 11
369.251215
 21
284.77892800000001
 31
0.0
 12
369.63035799999989
 22
284.873087
 32
0.0
 13
369.63035799999989
 23
284.873087
 33
0.0
  0
SOLID
  5
2B20
  8
WAKU
  6
CONTINUOUS
 10
369.635696
 20
285.18040400000001
 30
0.0
 11
369.2413029999999
 21
285.15413199999989
 31
0.0
 12
369.63035799999989
 22
284.873087
 32
0.0
 13
369.63035799999989
 23
284.873087
 33
0.0
  0
SOLID
  5
2B21
  8
WAKU
  6
CONTINUOUS
 10
373.69033499999989
 20
285.22974399999998
 30
0.0
 11
372.23749700000002
 21
284.48611699999992
 31
0.0
 12
373.24153200000001
 22
284.78094099999998
 32
0.0
 13
373.24153200000001
 23
284.78094099999998
 33
0.0
  0
SOLID
  5
2B22
  8
WAKU
  6
CONTINUOUS
 10
371.98993999999999
 20
285.25143100000003
 30
0.0
 11
371.31226299999992
 21
284.8103319999999
 31
0.0
 12
372.194232
 22
284.91809899999998
 32
0.0
 13
372.194232
 23
284.91809899999998
 33
0.0
  0
SOLID
  5
2B23
  8
WAKU
  6
CONTINUOUS
 10
373.195965
 20
285.2752319999999
 30
0.0
 11
372.23749700000002
 21
284.48611699999992
 31
0.0
 12
373.69033499999989
 22
285.22974399999998
 32
0.0
 13
373.69033499999989
 23
285.22974399999998
 33
0.0
  0
SOLID
  5
2B24
  8
WAKU
  6
CONTINUOUS
 10
372.68636299999991
 20
285.32617099999987
 30
0.0
 11
371.98993999999999
 21
285.25143100000003
 31
0.0
 12
372.194232
 22
284.91809899999998
 32
0.0
 13
372.194232
 23
284.91809899999998
 33
0.0
  0
SOLID
  5
2B25
  8
WAKU
  6
CONTINUOUS
 10
370.03529300000002
 20
285.46515399999993
 30
0.0
 11
369.86313899999999
 21
284.98818899999998
 31
0.0
 12
370.26016800000002
 22
284.959969
 32
0.0
 13
370.26016800000002
 23
284.959969
 33
0.0
  0
SOLID
  5
2B26
  8
WAKU
  6
CONTINUOUS
 10
369.73149000000001
 20
285.57602099999991
 30
0.0
 11
369.2413029999999
 21
285.15413199999989
 31
0.0
 12
369.635696
 22
285.18040400000001
 32
0.0
 13
369.635696
 23
285.18040400000001
 33
0.0
  0
SOLID
  5
2B27
  8
WAKU
  6
CONTINUOUS
 10
369.32614599999988
 20
285.58428700000002
 30
0.0
 11
369.2413029999999
 21
285.15413199999989
 31
0.0
 12
369.73149000000001
 22
285.57602099999991
 32
0.0
 13
369.73149000000001
 23
285.57602099999991
 33
0.0
  0
SOLID
  5
2B28
  8
WAKU
  6
CONTINUOUS
 10
370.53071199999999
 20
285.59087499999993
 30
0.0
 11
370.03529300000002
 21
285.46515399999993
 31
0.0
 12
370.26016800000002
 22
284.959969
 32
0.0
 13
370.26016800000002
 23
284.959969
 33
0.0
  0
SOLID
  5
2B29
  8
WAKU
  6
CONTINUOUS
 10
388.45220799999993
 20
283.49999999999989
 30
0.0
 11
389.23614399999991
 21
285.65384599999987
 31
0.0
 12
383.85152900000003
 22
285.65384599999987
 32
0.0
 13
383.85152900000003
 23
285.65384599999987
 33
0.0
  0
SOLID
  5
2B2A
  8
WAKU
  6
CONTINUOUS
 10
383.85152900000003
 20
285.65384599999987
 30
0.0
 11
383.06759299999999
 21
283.49999999999989
 31
0.0
 12
388.45220799999993
 22
283.49999999999989
 32
0.0
 13
388.45220799999993
 23
283.49999999999989
 33
0.0
  0
SOLID
  5
2B2B
  8
WAKU
  6
CONTINUOUS
 10
391.17460599999998
 20
285.65384599999987
 30
0.0
 11
390.39067
 21
283.49999999999989
 31
0.0
 12
395.45220799999993
 22
283.49999999999989
 32
0.0
 13
395.45220799999993
 23
283.49999999999989
 33
0.0
  0
SOLID
  5
2B2C
  8
WAKU
  6
CONTINUOUS
 10
395.45220799999993
 20
283.49999999999989
 30
0.0
 11
395.159221
 21
285.65384599999987
 31
0.0
 12
391.17460599999998
 22
285.65384599999987
 32
0.0
 13
391.17460599999998
 23
285.65384599999987
 33
0.0
  0
SOLID
  5
2B2D
  8
WAKU
  6
CONTINUOUS
 10
404.85152900000003
 20
285.65384599999987
 30
0.0
 11
404.06759299999999
 21
283.49999999999989
 31
0.0
 12
409.45220799999993
 22
283.49999999999989
 32
0.0
 13
409.45220799999993
 23
283.49999999999989
 33
0.0
  0
SOLID
  5
2B2E
  8
WAKU
  6
CONTINUOUS
 10
409.45220799999993
 20
283.49999999999989
 30
0.0
 11
409.15922099999989
 21
285.65384599999987
 31
0.0
 12
404.85152900000003
 22
285.65384599999987
 32
0.0
 13
404.85152900000003
 23
285.65384599999987
 33
0.0
  0
SOLID
  5
2B2F
  8
WAKU
  6
CONTINUOUS
 10
374.09068100000002
 20
285.71051999999997
 30
0.0
 11
373.195965
 21
285.2752319999999
 31
0.0
 12
373.69033499999989
 22
285.22974399999998
 32
0.0
 13
373.69033499999989
 23
285.22974399999998
 33
0.0
  0
SOLID
  5
2B30
  8
WAKU
  6
CONTINUOUS
 10
373.14526599999988
 20
285.78508900000003
 30
0.0
 11
371.98993999999999
 21
285.25143100000003
 31
0.0
 12
372.68636299999991
 22
285.32617099999987
 32
0.0
 13
372.68636299999991
 23
285.32617099999987
 33
0.0
  0
SOLID
  5
2B31
  8
WAKU
  6
CONTINUOUS
 10
372.64629600000001
 20
285.82550600000002
 30
0.0
 11
371.98993999999999
 21
285.25143100000003
 31
0.0
 12
373.14526599999988
 22
285.78508900000003
 32
0.0
 13
373.14526599999988
 23
285.78508900000003
 33
0.0
  0
SOLID
  5
2B32
  8
WAKU
  6
CONTINUOUS
 10
370.29715599999997
 20
285.96650899999992
 30
0.0
 11
370.03529300000002
 21
285.46515399999993
 31
0.0
 12
370.53071199999999
 22
285.59087499999993
 32
0.0
 13
370.53071199999999
 23
285.59087499999993
 33
0.0
  0
SOLID
  5
2B33
  8
WAKU
  6
CONTINUOUS
 10
369.923519
 20
286.03102799999988
 30
0.0
 11
369.32614599999988
 21
285.58428700000002
 31
0.0
 12
369.73149000000001
 22
285.57602099999991
 32
0.0
 13
369.73149000000001
 23
285.57602099999991
 33
0.0
  0
SOLID
  5
2B34
  8
WAKU
  6
CONTINUOUS
 10
369.50262700000002
 20
286.05359299999998
 30
0.0
 11
369.32614599999988
 21
285.58428700000002
 31
0.0
 12
369.923519
 22
286.03102799999988
 32
0.0
 13
369.923519
 23
286.03102799999988
 33
0.0
  0
SOLID
  5
2B35
  8
WAKU
  6
CONTINUOUS
 10
379.39714500000002
 20
286.13846199999989
 30
0.0
 11
378.436824
 21
283.49999999999989
 31
0.0
 12
379.51374700000002
 22
283.49999999999989
 32
0.0
 13
379.51374700000002
 23
283.49999999999989
 33
0.0
  0
SOLID
  5
2B36
  8
WAKU
  6
CONTINUOUS
 10
380.49366700000002
 20
286.19230800000003
 30
0.0
 11
379.39714500000002
 21
286.13846199999989
 31
0.0
 12
379.51374700000002
 22
283.49999999999989
 32
0.0
 13
379.51374700000002
 23
283.49999999999989
 33
0.0
  0
SOLID
  5
2B37
  8
WAKU
  6
CONTINUOUS
 10
382.75520499999988
 20
286.19230800000003
 30
0.0
 11
380.49366700000002
 21
286.19230800000003
 31
0.0
 12
381.775285
 22
283.49999999999989
 32
0.0
 13
381.775285
 23
283.49999999999989
 33
0.0
  0
SOLID
  5
2B38
  8
WAKU
  6
CONTINUOUS
 10
377.15520499999991
 20
286.19230800000003
 30
0.0
 11
380.49366700000002
 21
286.19230800000003
 31
0.0
 12
382.75520499999988
 22
286.19230800000003
 32
0.0
 13
382.75520499999988
 23
286.19230800000003
 33
0.0
  0
SOLID
  5
2B39
  8
WAKU
  6
CONTINUOUS
 10
377.15520499999991
 20
286.19230800000003
 30
0.0
 11
379.39714500000002
 21
286.13846199999989
 31
0.0
 12
380.49366700000002
 22
286.19230800000003
 32
0.0
 13
380.49366700000002
 23
286.19230800000003
 33
0.0
  0
SOLID
  5
2B3A
  8
WAKU
  6
CONTINUOUS
 10
377.15520499999991
 20
286.19230800000003
 30
0.0
 11
376.17528499999997
 21
283.49999999999989
 31
0.0
 12
379.39714500000002
 22
286.13846199999989
 32
0.0
 13
379.39714500000002
 23
286.13846199999989
 33
0.0
  0
SOLID
  5
2B3B
  8
WAKU
  6
CONTINUOUS
 10
374.427865
 20
286.20560899999992
 30
0.0
 11
373.195965
 21
285.2752319999999
 31
0.0
 12
374.09068100000002
 22
285.71051999999997
 32
0.0
 13
374.09068100000002
 23
285.71051999999997
 33
0.0
  0
SOLID
  5
2B3C
  8
WAKU
  6
CONTINUOUS
 10
373.98505
 20
286.23371800000001
 30
0.0
 11
373.195965
 21
285.2752319999999
 31
0.0
 12
374.427865
 22
286.20560899999992
 32
0.0
 13
374.427865
 23
286.20560899999992
 33
0.0
  0
SOLID
  5
2B3D
  8
WAKU
  6
CONTINUOUS
 10
370.97189600000002
 20
286.26847099999992
 30
0.0
 11
370.29715599999997
 21
285.96650899999992
 31
0.0
 12
370.53071199999999
 22
285.59087499999993
 32
0.0
 13
370.53071199999999
 23
285.59087499999993
 33
0.0
  0
SOLID
  5
2B3E
  8
WAKU
  6
CONTINUOUS
 10
373.553316
 20
286.27722899999992
 30
0.0
 11
372.64629600000001
 21
285.82550600000002
 31
0.0
 12
373.14526599999988
 22
285.78508900000003
 32
0.0
 13
373.14526599999988
 23
285.78508900000003
 33
0.0
  0
SOLID
  5
2B3F
  8
WAKU
  6
CONTINUOUS
 10
370.63867099999987
 20
286.47300000000001
 30
0.0
 11
370.29715599999997
 21
285.96650899999992
 31
0.0
 12
370.97189600000002
 22
286.26847099999992
 32
0.0
 13
370.97189600000002
 23
286.26847099999992
 33
0.0
  0
SOLID
  5
2B40
  8
WAKU
  6
CONTINUOUS
 10
373.22023799999988
 20
286.48191999999989
 30
0.0
 11
372.64629600000001
 21
285.82550600000002
 31
0.0
 12
373.553316
 22
286.27722899999992
 32
0.0
 13
373.553316
 23
286.27722899999992
 33
0.0
  0
SOLID
  5
2B41
  8
WAKU
  6
CONTINUOUS
 10
370.20703500000002
 20
286.51657
 30
0.0
 11
369.50262700000002
 21
286.05359299999998
 31
0.0
 12
369.923519
 22
286.03102799999988
 32
0.0
 13
369.923519
 23
286.03102799999988
 33
0.0
  0
SOLID
  5
2B42
  8
WAKU
  6
CONTINUOUS
 10
369.76426499999991
 20
286.54481199999998
 30
0.0
 11
369.50262700000002
 21
286.05359299999998
 31
0.0
 12
370.20703500000002
 22
286.51657
 32
0.0
 13
370.20703500000002
 23
286.51657
 33
0.0
  0
SOLID
  5
2B43
  8
WAKU
  6
CONTINUOUS
 10
374.689503
 20
286.69682799999998
 30
0.0
 11
373.98505
 21
286.23371800000001
 31
0.0
 12
374.427865
 22
286.20560899999992
 32
0.0
 13
374.427865
 23
286.20560899999992
 33
0.0
  0
SOLID
  5
2B44
  8
WAKU
  6
CONTINUOUS
 10
374.268507
 20
286.71927799999992
 30
0.0
 11
373.98505
 21
286.23371800000001
 31
0.0
 12
374.689503
 22
286.69682799999998
 32
0.0
 13
374.689503
 23
286.69682799999998
 33
0.0
  0
SOLID
  5
2B45
  8
WAKU
  6
CONTINUOUS
 10
373.89484299999998
 20
286.78369300000003
 30
0.0
 11
373.22023799999988
 21
286.48191999999989
 31
0.0
 12
373.553316
 22
286.27722899999992
 32
0.0
 13
373.553316
 23
286.27722899999992
 33
0.0
  0
SOLID
  5
2B46
  8
WAKU
  6
CONTINUOUS
 10
371.54582699999992
 20
286.92489299999988
 30
0.0
 11
370.63867099999987
 21
286.47300000000001
 31
0.0
 12
370.97189600000002
 22
286.26847099999992
 32
0.0
 13
370.97189600000002
 23
286.26847099999992
 33
0.0
  0
SOLID
  5
2B47
  8
WAKU
  6
CONTINUOUS
 10
371.04671999999999
 20
286.96517399999999
 30
0.0
 11
370.63867099999987
 21
286.47300000000001
 31
0.0
 12
371.54582699999992
 22
286.92489299999988
 32
0.0
 13
371.54582699999992
 23
286.92489299999988
 33
0.0
  0
SOLID
  5
2B48
  8
WAKU
  6
CONTINUOUS
 10
370.10144899999989
 20
287.03990099999987
 30
0.0
 11
369.76426499999991
 21
286.54481199999998
 31
0.0
 12
370.20703500000002
 22
286.51657
 32
0.0
 13
370.20703500000002
 23
286.51657
 33
0.0
  0
SOLID
  5
2B49
  8
WAKU
  6
CONTINUOUS
 10
373.66135299999991
 20
287.15953400000001
 30
0.0
 11
373.22023799999988
 21
286.48191999999989
 31
0.0
 12
373.89484299999998
 22
286.78369300000003
 32
0.0
 13
373.89484299999998
 23
286.78369300000003
 33
0.0
  0
SOLID
  5
2B4A
  8
WAKU
  6
CONTINUOUS
 10
374.86598399999991
 20
287.166134
 30
0.0
 11
374.268507
 21
286.71927799999992
 31
0.0
 12
374.689503
 22
286.69682799999998
 32
0.0
 13
374.689503
 23
286.69682799999998
 33
0.0
  0
SOLID
  5
2B4B
  8
WAKU
  6
CONTINUOUS
 10
374.46071000000001
 20
287.17424799999992
 30
0.0
 11
374.268507
 21
286.71927799999992
 31
0.0
 12
374.86598399999991
 22
287.166134
 32
0.0
 13
374.86598399999991
 23
287.166134
 33
0.0
  0
SOLID
  5
2B4C
  8
WAKU
  6
CONTINUOUS
 10
374.15673199999992
 20
287.28502999999989
 30
0.0
 11
373.66135299999991
 21
287.15953400000001
 31
0.0
 12
373.89484299999998
 22
286.78369300000003
 32
0.0
 13
373.89484299999998
 23
286.78369300000003
 33
0.0
  0
SOLID
  5
2B4D
  8
WAKU
  6
CONTINUOUS
 10
371.50563199999988
 20
287.424128
 30
0.0
 11
371.04671999999999
 21
286.96517399999999
 31
0.0
 12
371.54582699999992
 22
286.92489299999988
 32
0.0
 13
371.54582699999992
 23
286.92489299999988
 33
0.0
  0
SOLID
  5
2B4E
  8
WAKU
  6
CONTINUOUS
 10
370.99609800000002
 20
287.47510799999998
 30
0.0
 11
370.10144899999989
 21
287.03990099999987
 31
0.0
 12
370.20703500000002
 22
286.51657
 32
0.0
 13
370.20703500000002
 23
286.51657
 33
0.0
  0
SOLID
  5
2B4F
  8
WAKU
  6
CONTINUOUS
 10
372.202181
 20
287.49899099999999
 30
0.0
 11
371.50563199999988
 21
287.424128
 31
0.0
 12
371.54582699999992
 22
286.92489299999988
 32
0.0
 13
371.54582699999992
 23
286.92489299999988
 33
0.0
  0
SOLID
  5
2B50
  8
WAKU
  6
CONTINUOUS
 10
370.50179500000002
 20
287.52067699999992
 30
0.0
 11
370.10144899999989
 21
287.03990099999987
 31
0.0
 12
370.99609800000002
 22
287.47510799999998
 32
0.0
 13
370.99609800000002
 23
287.47510799999998
 33
0.0
  0
SOLID
  5
2B51
  8
WAKU
  6
CONTINUOUS
 10
374.55636099999998
 20
287.56986399999988
 30
0.0
 11
374.46071000000001
 21
287.17424799999992
 31
0.0
 12
374.86598399999991
 22
287.166134
 32
0.0
 13
374.86598399999991
 23
287.166134
 33
0.0
  0
SOLID
  5
2B52
  8
WAKU
  6
CONTINUOUS
 10
393.17245600000001
 20
287.592308
 30
0.0
 11
391.70356499999991
 21
286.51538499999998
 31
0.0
 12
392.78048799999999
 22
286.51538499999998
 32
0.0
 13
392.78048799999999
 23
286.51538499999998
 33
0.0
  0
SOLID
  5
2B53
  8
WAKU
  6
CONTINUOUS
 10
395.86476299999993
 20
287.592308
 30
0.0
 11
395.159221
 21
285.65384599999987
 31
0.0
 12
395.45220799999993
 22
283.49999999999989
 32
0.0
 13
395.45220799999993
 23
283.49999999999989
 33
0.0
  0
SOLID
  5
2B54
  8
WAKU
  6
CONTINUOUS
 10
396.941687
 20
287.592308
 30
0.0
 11
393.17245600000001
 21
287.592308
 31
0.0
 12
395.86476299999993
 22
287.592308
 32
0.0
 13
395.86476299999993
 23
287.592308
 33
0.0
  0
SOLID
  5
2B55
  8
WAKU
  6
CONTINUOUS
 10
396.941687
 20
287.592308
 30
0.0
 11
395.86476299999993
 21
287.592308
 31
0.0
 12
395.45220799999993
 22
283.49999999999989
 32
0.0
 13
395.45220799999993
 23
283.49999999999989
 33
0.0
  0
SOLID
  5
2B56
  8
WAKU
  6
CONTINUOUS
 10
392.09553299999988
 20
287.592308
 30
0.0
 11
396.941687
 21
287.592308
 31
0.0
 12
397.74937899999998
 22
287.592308
 32
0.0
 13
397.74937899999998
 23
287.592308
 33
0.0
  0
SOLID
  5
2B57
  8
WAKU
  6
CONTINUOUS
 10
392.09553299999988
 20
287.592308
 30
0.0
 11
393.17245600000001
 21
287.592308
 31
0.0
 12
396.941687
 22
287.592308
 32
0.0
 13
396.941687
 23
287.592308
 33
0.0
  0
SOLID
  5
2B58
  8
WAKU
  6
CONTINUOUS
 10
392.09553299999988
 20
287.592308
 30
0.0
 11
391.70356499999991
 21
286.51538499999998
 31
0.0
 12
393.17245600000001
 22
287.592308
 32
0.0
 13
393.17245600000001
 23
287.592308
 33
0.0
  0
SOLID
  5
2B59
  8
WAKU
  6
CONTINUOUS
 10
374.950827
 20
287.59628900000001
 30
0.0
 11
374.55636099999998
 21
287.56986399999988
 31
0.0
 12
374.86598399999991
 22
287.166134
 32
0.0
 13
374.86598399999991
 23
287.166134
 33
0.0
  0
SOLID
  5
2B5A
  8
WAKU
  6
CONTINUOUS
 10
374.32892500000003
 20
287.76198699999998
 30
0.0
 11
373.66135299999991
 21
287.15953400000001
 31
0.0
 12
374.15673199999992
 22
287.28502999999989
 32
0.0
 13
374.15673199999992
 23
287.28502999999989
 33
0.0
  0
SOLID
  5
2B5B
  8
WAKU
  6
CONTINUOUS
 10
373.93207100000001
 20
287.79040199999997
 30
0.0
 11
373.66135299999991
 21
287.15953400000001
 31
0.0
 12
374.32892500000003
 22
287.76198699999998
 32
0.0
 13
374.32892500000003
 23
287.76198699999998
 33
0.0
  0
SOLID
  5
2B5C
  8
WAKU
  6
CONTINUOUS
 10
371.99778300000003
 20
287.83223500000003
 30
0.0
 11
371.50563199999988
 21
287.424128
 31
0.0
 12
372.202181
 22
287.49899099999999
 32
0.0
 13
372.202181
 23
287.49899099999999
 33
0.0
  0
SOLID
  5
2B5D
  8
WAKU
  6
CONTINUOUS
 10
374.561802
 20
287.87725299999988
 30
0.0
 11
374.55636099999998
 21
287.56986399999988
 31
0.0
 12
374.950827
 22
287.59628900000001
 32
0.0
 13
374.950827
 23
287.59628900000001
 33
0.0
  0
SOLID
  5
2B5E
  8
WAKU
  6
CONTINUOUS
 10
372.87987799999991
 20
287.94005699999991
 30
0.0
 11
371.99778300000003
 21
287.83223500000003
 31
0.0
 12
372.202181
 22
287.49899099999999
 32
0.0
 13
372.202181
 23
287.49899099999999
 33
0.0
  0
SOLID
  5
2B5F
  8
WAKU
  6
CONTINUOUS
 10
370.95059900000001
 20
287.96947999999992
 30
0.0
 11
370.50179500000002
 21
287.52067699999992
 31
0.0
 12
370.99609800000002
 22
287.47510799999998
 32
0.0
 13
370.99609800000002
 23
287.47510799999998
 33
0.0
  0
SOLID
  5
2B60
  8
WAKU
  6
CONTINUOUS
 10
374.94091500000002
 20
287.97149300000001
 30
0.0
 11
374.561802
 21
287.87725299999988
 31
0.0
 12
374.950827
 22
287.59628900000001
 32
0.0
 13
374.950827
 23
287.59628900000001
 33
0.0
  0
SOLID
  5
2B61
  8
WAKU
  6
CONTINUOUS
 10
374.502951
 20
288.07791800000001
 30
0.0
 11
374.561802
 21
287.87725299999988
 31
0.0
 12
374.94091500000002
 22
287.97149300000001
 32
0.0
 13
374.94091500000002
 23
287.97149300000001
 33
0.0
  0
SOLID
  5
2B62
  8
WAKU
  6
CONTINUOUS
 10
408.51346299999989
 20
286.83846199999999
 30
0.0
 11
408.98382400000003
 21
288.13076899999987
 31
0.0
 12
405.75305500000002
 22
288.13076899999987
 32
0.0
 13
405.75305500000002
 23
288.13076899999987
 33
0.0
  0
SOLID
  5
2B63
  8
WAKU
  6
CONTINUOUS
 10
405.75305500000002
 20
288.13076899999987
 30
0.0
 11
405.28269399999999
 21
286.83846199999999
 31
0.0
 12
408.51346299999989
 22
286.83846199999999
 32
0.0
 13
408.51346299999989
 23
286.83846199999999
 33
0.0
  0
SOLID
  5
2B64
  8
WAKU
  6
CONTINUOUS
 10
372.50426900000002
 20
288.17382099999992
 30
0.0
 11
371.99778300000003
 21
287.83223500000003
 31
0.0
 12
372.87987799999991
 22
287.94005699999991
 32
0.0
 13
372.87987799999991
 23
287.94005699999991
 33
0.0
  0
SOLID
  5
2B65
  8
WAKU
  6
CONTINUOUS
 10
374.40481
 20
288.19624900000002
 30
0.0
 11
373.93207100000001
 21
287.79040199999997
 31
0.0
 12
374.32892500000003
 22
287.76198699999998
 32
0.0
 13
374.32892500000003
 23
287.76198699999998
 33
0.0
  0
SOLID
  5
2B66
  8
WAKU
  6
CONTINUOUS
 10
374.40481
 20
288.19624900000002
 30
0.0
 11
374.502951
 21
288.07791800000001
 31
0.0
 12
374.94091500000002
 22
287.97149300000001
 32
0.0
 13
374.94091500000002
 23
287.97149300000001
 33
0.0
  0
SOLID
  5
2B67
  8
WAKU
  6
CONTINUOUS
 10
373.510738
 20
288.21123999999998
 30
0.0
 11
372.50426900000002
 21
288.17382099999992
 31
0.0
 12
372.87987799999991
 22
287.94005699999991
 32
0.0
 13
372.87987799999991
 23
287.94005699999991
 33
0.0
  0
SOLID
  5
2B68
  8
WAKU
  6
CONTINUOUS
 10
371.954587
 20
288.26428399999992
 30
0.0
 11
370.95059900000001
 21
287.96947999999992
 31
0.0
 12
370.99609800000002
 22
287.47510799999998
 32
0.0
 13
370.99609800000002
 23
287.47510799999998
 33
0.0
  0
SOLID
  5
2B69
  8
WAKU
  6
CONTINUOUS
 10
374.836612
 20
288.27796699999999
 30
0.0
 11
374.40481
 21
288.19624900000002
 31
0.0
 12
374.94091500000002
 22
287.97149300000001
 32
0.0
 13
374.94091500000002
 23
287.97149300000001
 33
0.0
  0
SOLID
  5
2B6A
  8
WAKU
  6
CONTINUOUS
 10
374.01922899999988
 20
288.29856899999987
 30
0.0
 11
372.50426900000002
 21
288.17382099999992
 31
0.0
 12
373.510738
 22
288.21123999999998
 32
0.0
 13
373.510738
 23
288.21123999999998
 33
0.0
  0
SOLID
  5
2B6B
  8
WAKU
  6
CONTINUOUS
 10
374.01922899999988
 20
288.29856899999987
 30
0.0
 11
374.40481
 21
288.19624900000002
 31
0.0
 12
374.836612
 22
288.27796699999999
 32
0.0
 13
374.836612
 23
288.27796699999999
 33
0.0
  0
SOLID
  5
2B6C
  8
WAKU
  6
CONTINUOUS
 10
374.01922899999988
 20
288.29856899999987
 30
0.0
 11
373.93207100000001
 21
287.79040199999997
 31
0.0
 12
374.40481
 22
288.19624900000002
 32
0.0
 13
374.40481
 23
288.19624900000002
 33
0.0
  0
SOLID
  5
2B6D
  8
WAKU
  6
CONTINUOUS
 10
371.43137400000001
 20
288.36982599999999
 30
0.0
 11
370.95059900000001
 21
287.96947999999992
 31
0.0
 12
371.954587
 22
288.26428399999992
 32
0.0
 13
371.954587
 23
288.26428399999992
 33
0.0
  0
SOLID
  5
2B6E
  8
WAKU
  6
CONTINUOUS
 10
373.00563899999997
 20
288.43576799999988
 30
0.0
 11
372.50426900000002
 21
288.17382099999992
 31
0.0
 12
374.01922899999988
 22
288.29856899999987
 32
0.0
 13
374.01922899999988
 23
288.29856899999987
 33
0.0
  0
SOLID
  5
2B6F
  8
WAKU
  6
CONTINUOUS
 10
374.641749
 20
288.50445200000001
 30
0.0
 11
373.00563899999997
 21
288.43576799999988
 31
0.0
 12
374.01922899999988
 22
288.29856899999987
 32
0.0
 13
374.01922899999988
 23
288.29856899999987
 33
0.0
  0
SOLID
  5
2B70
  8
WAKU
  6
CONTINUOUS
 10
374.641749
 20
288.50445200000001
 30
0.0
 11
374.01922899999988
 21
288.29856899999987
 31
0.0
 12
374.836612
 22
288.27796699999999
 32
0.0
 13
374.836612
 23
288.27796699999999
 33
0.0
  0
SOLID
  5
2B71
  8
WAKU
  6
CONTINUOUS
 10
372.44023499999997
 20
288.54758500000003
 30
0.0
 11
371.43137400000001
 21
288.36982599999999
 31
0.0
 12
371.954587
 22
288.26428399999992
 32
0.0
 13
371.954587
 23
288.26428399999992
 33
0.0
  0
SOLID
  5
2B72
  8
WAKU
  6
CONTINUOUS
 10
373.48263600000001
 20
288.60801400000003
 30
0.0
 11
373.00563899999997
 21
288.43576799999988
 31
0.0
 12
374.641749
 22
288.50445200000001
 32
0.0
 13
374.641749
 23
288.50445200000001
 33
0.0
  0
SOLID
  5
2B73
  8
WAKU
  6
CONTINUOUS
 10
374.36348399999991
 20
288.64263
 30
0.0
 11
373.48263600000001
 21
288.60801400000003
 31
0.0
 12
374.641749
 22
288.50445200000001
 32
0.0
 13
374.641749
 23
288.50445200000001
 33
0.0
  0
SOLID
  5
2B74
  8
WAKU
  6
CONTINUOUS
 10
373.91694100000001
 20
288.683944
 30
0.0
 11
373.48263600000001
 21
288.60801400000003
 31
0.0
 12
374.36348399999991
 22
288.64263
 32
0.0
 13
374.36348399999991
 23
288.64263
 33
0.0
  0
SOLID
  5
2B75
  8
WAKU
  6
CONTINUOUS
 10
371.92646400000001
 20
288.70701000000003
 30
0.0
 11
371.43137400000001
 21
288.36982599999999
 31
0.0
 12
372.44023499999997
 22
288.54758500000003
 32
0.0
 13
372.44023499999997
 23
288.54758500000003
 33
0.0
  0
SOLID
  5
2B76
  8
WAKU
  6
CONTINUOUS
 10
372.89513999999991
 20
288.74006500000002
 30
0.0
 11
371.92646400000001
 21
288.70701000000003
 31
0.0
 12
372.44023499999997
 22
288.54758500000003
 32
0.0
 13
372.44023499999997
 23
288.54758500000003
 33
0.0
  0
SOLID
  5
2B77
  8
WAKU
  6
CONTINUOUS
 10
381.5248509999999
 20
288.7769229999999
 30
0.0
 11
377.15520499999991
 21
286.19230800000003
 31
0.0
 12
382.75520499999988
 22
286.19230800000003
 32
0.0
 13
382.75520499999988
 23
286.19230800000003
 33
0.0
  0
SOLID
  5
2B78
  8
WAKU
  6
CONTINUOUS
 10
380.31131299999993
 20
288.7769229999999
 30
0.0
 11
381.5248509999999
 21
288.7769229999999
 31
0.0
 12
383.69592799999992
 22
288.7769229999999
 32
0.0
 13
383.69592799999992
 23
288.7769229999999
 33
0.0
  0
SOLID
  5
2B79
  8
WAKU
  6
CONTINUOUS
 10
380.31131299999993
 20
288.7769229999999
 30
0.0
 11
377.15520499999991
 21
286.19230800000003
 31
0.0
 12
381.5248509999999
 22
288.7769229999999
 32
0.0
 13
381.5248509999999
 23
288.7769229999999
 33
0.0
  0
SOLID
  5
2B7A
  8
WAKU
  6
CONTINUOUS
 10
373.799148
 20
288.78192899999988
 30
0.0
 11
373.91694100000001
 21
288.683944
 31
0.0
 12
374.36348399999991
 22
288.64263
 32
0.0
 13
374.36348399999991
 23
288.64263
 33
0.0
  0
SOLID
  5
2B7B
  8
WAKU
  6
CONTINUOUS
 10
373.2908569999999
 20
288.83558099999988
 30
0.0
 11
371.92646400000001
 21
288.70701000000003
 31
0.0
 12
372.89513999999991
 22
288.74006500000002
 32
0.0
 13
372.89513999999991
 23
288.74006500000002
 33
0.0
  0
SOLID
  5
2B7C
  8
WAKU
  6
CONTINUOUS
 10
373.59799600000002
 20
288.84090200000003
 30
0.0
 11
373.799148
 21
288.78192899999988
 31
0.0
 12
374.36348399999991
 22
288.64263
 32
0.0
 13
374.36348399999991
 23
288.64263
 33
0.0
  0
SOLID
  5
2B7D
  8
WAKU
  6
CONTINUOUS
 10
401.25888099999997
 20
286.73076900000001
 30
0.0
 11
402.04281700000001
 21
288.884615
 31
0.0
 12
400.96589399999988
 22
288.884615
 32
0.0
 13
400.96589399999988
 23
288.884615
 33
0.0
  0
SOLID
  5
2B7E
  8
WAKU
  6
CONTINUOUS
 10
400.96589399999988
 20
288.884615
 30
0.0
 11
400.18195800000001
 21
286.73076900000001
 31
0.0
 12
401.25888099999997
 22
286.73076900000001
 32
0.0
 13
401.25888099999997
 23
286.73076900000001
 33
0.0
  0
SOLID
  5
2B7F
  8
WAKU
  6
CONTINUOUS
 10
401.42477599999989
 20
285.115385
 30
0.0
 11
403.87358699999999
 21
288.884615
 31
0.0
 12
402.79666299999991
 22
288.884615
 32
0.0
 13
402.79666299999991
 23
288.884615
 33
0.0
  0
SOLID
  5
2B80
  8
WAKU
  6
CONTINUOUS
 10
403.87358699999999
 20
288.884615
 30
0.0
 11
401.42477599999989
 21
285.115385
 31
0.0
 12
401.913747
 22
283.49999999999989
 32
0.0
 13
401.913747
 23
283.49999999999989
 33
0.0
  0
SOLID
  5
2B81
  8
WAKU
  6
CONTINUOUS
 10
399.858881
 20
286.73076900000001
 30
0.0
 11
400.64281699999992
 21
288.884615
 31
0.0
 12
399.56589400000001
 22
288.884615
 32
0.0
 13
399.56589400000001
 23
288.884615
 33
0.0
  0
SOLID
  5
2B82
  8
WAKU
  6
CONTINUOUS
 10
399.56589400000001
 20
288.884615
 30
0.0
 11
398.78195799999997
 21
286.73076900000001
 31
0.0
 12
399.858881
 22
286.73076900000001
 32
0.0
 13
399.858881
 23
286.73076900000001
 33
0.0
  0
SOLID
  5
2B83
  8
WAKU
  6
CONTINUOUS
 10
374.22530599999988
 20
288.92089499999997
 30
0.0
 11
373.59799600000002
 21
288.84090200000003
 31
0.0
 12
374.36348399999991
 22
288.64263
 32
0.0
 13
374.36348399999991
 23
288.64263
 33
0.0
  0
SOLID
  5
2B84
  8
WAKU
  6
CONTINUOUS
 10
372.41768300000001
 20
288.96864799999992
 30
0.0
 11
373.59799600000002
 21
288.84090200000003
 31
0.0
 12
374.22530599999988
 22
288.92089499999997
 32
0.0
 13
374.22530599999988
 23
288.92089499999997
 33
0.0
  0
SOLID
  5
2B85
  8
WAKU
  6
CONTINUOUS
 10
372.41768300000001
 20
288.96864799999992
 30
0.0
 11
373.2908569999999
 21
288.83558099999988
 31
0.0
 12
373.59799600000002
 22
288.84090200000003
 32
0.0
 13
373.59799600000002
 23
288.84090200000003
 33
0.0
  0
SOLID
  5
2B86
  8
WAKU
  6
CONTINUOUS
 10
372.41768300000001
 20
288.96864799999992
 30
0.0
 11
371.92646400000001
 21
288.70701000000003
 31
0.0
 12
373.2908569999999
 22
288.83558099999988
 32
0.0
 13
373.2908569999999
 23
288.83558099999988
 33
0.0
  0
SOLID
  5
2B87
  8
WAKU
  6
CONTINUOUS
 10
373.99882100000002
 20
289.11575699999992
 30
0.0
 11
372.41768300000001
 21
288.96864799999992
 31
0.0
 12
374.22530599999988
 22
288.92089499999997
 32
0.0
 13
374.22530599999988
 23
288.92089499999997
 33
0.0
  0
SOLID
  5
2B88
  8
WAKU
  6
CONTINUOUS
 10
372.88698799999992
 20
289.145129
 30
0.0
 11
372.41768300000001
 21
288.96864799999992
 31
0.0
 12
373.99882100000002
 22
289.11575699999992
 32
0.0
 13
373.99882100000002
 23
289.11575699999992
 33
0.0
  0
SOLID
  5
2B89
  8
WAKU
  6
CONTINUOUS
 10
398.33733100000001
 20
289.20769200000001
 30
0.0
 11
391.28784000000002
 21
287.592308
 31
0.0
 12
392.09553299999988
 22
287.592308
 32
0.0
 13
392.09553299999988
 23
287.592308
 33
0.0
  0
SOLID
  5
2B8A
  8
WAKU
  6
CONTINUOUS
 10
398.33733100000001
 20
289.20769200000001
 30
0.0
 11
392.09553299999988
 21
287.592308
 31
0.0
 12
397.74937899999998
 22
287.592308
 32
0.0
 13
397.74937899999998
 23
287.592308
 33
0.0
  0
SOLID
  5
2B8B
  8
WAKU
  6
CONTINUOUS
 10
391.28784000000002
 20
287.592308
 30
0.0
 11
398.33733100000001
 21
289.20769200000001
 31
0.0
 12
397.52963799999992
 22
289.20769200000001
 32
0.0
 13
397.52963799999992
 23
289.20769200000001
 33
0.0
  0
SOLID
  5
2B8C
  8
WAKU
  6
CONTINUOUS
 10
391.87579199999999
 20
289.20769200000001
 30
0.0
 11
391.28784000000002
 21
287.592308
 31
0.0
 12
397.52963799999992
 22
289.20769200000001
 32
0.0
 13
397.52963799999992
 23
289.20769200000001
 33
0.0
  0
SOLID
  5
2B8D
  8
WAKU
  6
CONTINUOUS
 10
397.52963799999992
 20
289.20769200000001
 30
0.0
 11
392.68348500000002
 21
289.20769200000001
 31
0.0
 12
391.87579199999999
 22
289.20769200000001
 32
0.0
 13
391.87579199999999
 23
289.20769200000001
 33
0.0
  0
SOLID
  5
2B8E
  8
WAKU
  6
CONTINUOUS
 10
393.76040799999993
 20
289.20769200000001
 30
0.0
 11
392.68348500000002
 21
289.20769200000001
 31
0.0
 12
397.52963799999992
 22
289.20769200000001
 32
0.0
 13
397.52963799999992
 23
289.20769200000001
 33
0.0
  0
SOLID
  5
2B8F
  8
WAKU
  6
CONTINUOUS
 10
397.52963799999992
 20
289.20769200000001
 30
0.0
 11
396.45271500000001
 21
289.20769200000001
 31
0.0
 12
393.76040799999993
 22
289.20769200000001
 32
0.0
 13
393.76040799999993
 23
289.20769200000001
 33
0.0
  0
SOLID
  5
2B90
  8
WAKU
  6
CONTINUOUS
 10
373.69234799999992
 20
289.22005999999988
 30
0.0
 11
372.88698799999992
 21
289.145129
 31
0.0
 12
373.99882100000002
 22
289.11575699999992
 32
0.0
 13
373.99882100000002
 23
289.11575699999992
 33
0.0
  0
SOLID
  5
2B91
  8
WAKU
  6
CONTINUOUS
 10
373.31714299999999
 20
289.22997199999998
 30
0.0
 11
372.88698799999992
 21
289.145129
 31
0.0
 12
373.69234799999992
 22
289.22005999999988
 32
0.0
 13
373.69234799999992
 23
289.22005999999988
 33
0.0
  0
SOLID
  5
2B92
  8
WAKU
  6
CONTINUOUS
 10
367.97127599999999
 20
286.22222199999999
 30
0.0
 11
372.24905299999989
 21
290.5
 31
0.0
 12
367.97127599999999
 22
290.5
 32
0.0
 13
367.97127599999999
 23
290.5
 33
0.0
  0
SOLID
  5
2B93
  8
WAKU
  6
CONTINUOUS
 10
409.21900499999998
 20
288.7769229999999
 30
0.0
 11
409.84615400000001
 21
290.5
 31
0.0
 12
406.615385
 22
290.5
 32
0.0
 13
406.615385
 23
290.5
 33
0.0
  0
SOLID
  5
2B94
  8
WAKU
  6
CONTINUOUS
 10
406.615385
 20
290.5
 30
0.0
 11
405.98823599999992
 21
288.7769229999999
 31
0.0
 12
409.21900499999998
 22
288.7769229999999
 32
0.0
 13
409.21900499999998
 23
288.7769229999999
 33
0.0
  0
SOLID
  5
2B95
  8
WAKU
  6
CONTINUOUS
 10
409.15922099999989
 20
285.65384599999987
 30
0.0
 11
412.0
 21
290.5
 31
0.0
 12
410.92307699999992
 22
290.5
 32
0.0
 13
410.92307699999992
 23
290.5
 33
0.0
  0
SOLID
  5
2B96
  8
WAKU
  6
CONTINUOUS
 10
412.0
 20
290.5
 30
0.0
 11
409.15922099999989
 21
285.65384599999987
 31
0.0
 12
409.45220799999993
 22
283.49999999999989
 32
0.0
 13
409.45220799999993
 23
283.49999999999989
 33
0.0
  0
SOLID
  5
2B97
  8
WAKU
  6
CONTINUOUS
 10
378.0959279999999
 20
288.7769229999999
 30
0.0
 11
384.32307700000001
 21
290.5
 31
0.0
 12
378.72307699999988
 22
290.5
 32
0.0
 13
378.72307699999988
 23
290.5
 33
0.0
  0
SOLID
  5
2B98
  8
WAKU
  6
CONTINUOUS
 10
384.32307700000001
 20
290.5
 30
0.0
 11
378.0959279999999
 21
288.7769229999999
 31
0.0
 12
380.31131299999993
 22
288.7769229999999
 32
0.0
 13
380.31131299999993
 23
288.7769229999999
 33
0.0
  0
SOLID
  5
2B99
  8
WAKU
  6
CONTINUOUS
 10
384.32307700000001
 20
290.5
 30
0.0
 11
380.31131299999993
 21
288.7769229999999
 31
0.0
 12
383.69592799999992
 22
288.7769229999999
 32
0.0
 13
383.69592799999992
 23
288.7769229999999
 33
0.0
  0
SOLID
  5
2B9A
  8
WAKU
  6
CONTINUOUS
 10
390.37285099999991
 20
288.7769229999999
 30
0.0
 11
391.0
 21
290.5
 31
0.0
 12
385.615385
 22
290.5
 32
0.0
 13
385.615385
 23
290.5
 33
0.0
  0
SOLID
  5
2B9B
  8
WAKU
  6
CONTINUOUS
 10
385.615385
 20
290.5
 30
0.0
 11
384.98823599999992
 21
288.7769229999999
 31
0.0
 12
390.37285099999991
 22
288.7769229999999
 32
0.0
 13
390.37285099999991
 23
288.7769229999999
 33
0.0
  0
SOLID
  5
2B9C
  8
WAKU
  6
CONTINUOUS
 10
393.76040799999993
 20
289.20769200000001
 30
0.0
 11
394.23076900000001
 21
290.5
 31
0.0
 12
393.15384599999999
 22
290.5
 32
0.0
 13
393.15384599999999
 23
290.5
 33
0.0
  0
SOLID
  5
2B9D
  8
WAKU
  6
CONTINUOUS
 10
393.15384599999999
 20
290.5
 30
0.0
 11
392.68348500000002
 21
289.20769200000001
 31
0.0
 12
393.76040799999993
 22
289.20769200000001
 32
0.0
 13
393.76040799999993
 23
289.20769200000001
 33
0.0
  0
SOLID
  5
2B9E
  8
WAKU
  6
CONTINUOUS
 10
396.45271500000001
 20
289.20769200000001
 30
0.0
 11
398.0
 21
290.5
 31
0.0
 12
396.92307699999992
 22
290.5
 32
0.0
 13
396.92307699999992
 23
290.5
 33
0.0
  0
SOLID
  5
2B9F
  8
WAKU
  6
CONTINUOUS
 10
398.0
 20
290.5
 30
0.0
 11
396.45271500000001
 21
289.20769200000001
 31
0.0
 12
397.52963799999992
 22
289.20769200000001
 32
0.0
 13
397.52963799999992
 23
289.20769200000001
 33
0.0
  0
ENDBLK
  5
2BA1
  8
0
  0
ENDSEC
  0
SECTION
  2
ENTITIES
  0
LINE
  5
43
  8
WAKU
 10
755.0
 20
505.0
 30
0.0
 11
755.0
 21
5.0
 31
0.0
  0
LINE
  5
46
  8
WAKU
 10
5.0
 20
505.0
 30
0.0
 11
5.0
 21
5.0
 31
0.0
  0
LINE
  5
55
  8
WAKU
 10
5.0
 20
5.0
 30
0.0
 11
755.0
 21
5.0
 31
0.0
  0
TEXT
  5
562
  8
WAKU
 10
34.469413000000003
 20
497.67056799999989
 30
0.0
 40
5.0
  1
引違い窓 RC枠断面詳細図  S100H015.dxf
 41
0.9769999999999999
  0
LINE
  5
572
  8
WAKU
 10
5.0
 20
495.0
 30
0.0
 11
755.0
 21
495.0
 31
0.0
  0
TEXT
  5
629
  8
WAKU
 10
10.048814999999991
 20
498.43971699999997
 30
0.0
 40
3.0
  1
FNS-100
 41
0.8759999999999998
  0
LINE
  5
CBC
  8
WAKU
  6
CONTINUOUS
 10
733.76040799999998
 20
502.20769199999989
 30
0.0
 11
736.45271500000001
 21
502.20769199999989
 31
0.0
  0
LINE
  5
CBD
  8
WAKU
  6
CONTINUOUS
 10
733.17245600000001
 20
500.592308
 30
0.0
 11
735.86476300000004
 21
500.592308
 31
0.0
  0
LINE
  5
CBE
  8
WAKU
  6
CONTINUOUS
 10
730.39066999999989
 20
496.49999999999989
 30
0.0
 11
735.45220800000004
 21
496.49999999999989
 31
0.0
  0
LINE
  5
CBF
  8
WAKU
  6
CONTINUOUS
 10
735.15922099999989
 20
498.65384599999999
 30
0.0
 11
735.86476300000004
 21
500.592308
 31
0.0
  0
LINE
  5
CC0
  8
WAKU
  6
CONTINUOUS
 10
707.97127599999988
 20
503.5
 30
0.0
 11
712.249053
 21
503.5
 31
0.0
  0
LINE
  5
CC1
  8
WAKU
  6
CONTINUOUS
 10
707.97127599999988
 20
499.22222199999999
 30
0.0
 11
712.249053
 21
503.5
 31
0.0
  0
LINE
  5
CC2
  8
WAKU
  6
CONTINUOUS
 10
707.97127599999988
 20
503.5
 30
0.0
 11
707.97127599999988
 21
499.22222199999999
 31
0.0
  0
LINE
  5
CC3
  8
WAKU
  6
CONTINUOUS
 10
721.52485100000001
 20
501.77692300000001
 30
0.0
 11
723.69592799999987
 21
501.77692300000001
 31
0.0
  0
LINE
  5
CC4
  8
WAKU
  6
CONTINUOUS
 10
718.72307699999999
 20
503.5
 30
0.0
 11
724.32307700000001
 21
503.5
 31
0.0
  0
LINE
  5
CC5
  8
WAKU
  6
CONTINUOUS
 10
720.31131300000004
 20
501.77692300000001
 30
0.0
 11
717.15520500000002
 21
499.19230800000003
 31
0.0
  0
LINE
  5
CC6
  8
WAKU
  6
CONTINUOUS
 10
721.52485100000001
 20
501.77692300000001
 30
0.0
 11
722.75520499999993
 21
499.19230800000003
 31
0.0
  0
LINE
  5
CC7
  8
WAKU
  6
CONTINUOUS
 10
716.17528499999992
 20
496.49999999999989
 30
0.0
 11
717.15520500000002
 21
499.19230800000003
 31
0.0
  0
LINE
  5
CC8
  8
WAKU
  6
CONTINUOUS
 10
719.39714500000002
 20
499.13846199999989
 30
0.0
 11
716.17528499999992
 21
496.49999999999989
 31
0.0
  0
LINE
  5
CC9
  8
WAKU
  6
CONTINUOUS
 10
721.77528499999994
 20
496.49999999999989
 30
0.0
 11
722.75520499999993
 21
499.19230800000003
 31
0.0
  0
LINE
  5
CCA
  8
WAKU
  6
CONTINUOUS
 10
720.49366699999985
 20
499.19230800000003
 30
0.0
 11
721.77528499999994
 21
496.49999999999989
 31
0.0
  0
LINE
  5
CCB
  8
WAKU
  6
CONTINUOUS
 10
719.51374699999985
 20
496.49999999999989
 30
0.0
 11
720.49366699999985
 21
499.19230800000003
 31
0.0
  0
LINE
  5
CCC
  8
WAKU
  6
CONTINUOUS
 10
718.436824
 20
496.49999999999989
 30
0.0
 11
719.51374699999985
 21
496.49999999999989
 31
0.0
  0
LINE
  5
CCD
  8
WAKU
  6
CONTINUOUS
 10
718.436824
 20
496.49999999999989
 30
0.0
 11
719.39714500000002
 21
499.13846199999989
 31
0.0
  0
LINE
  5
CCE
  8
WAKU
  6
CONTINUOUS
 10
718.09592799999996
 20
501.77692300000001
 30
0.0
 11
720.31131300000004
 21
501.77692300000001
 31
0.0
  0
LINE
  5
CCF
  8
WAKU
  6
CONTINUOUS
 10
718.72307699999999
 20
503.5
 30
0.0
 11
718.09592799999996
 21
501.77692300000001
 31
0.0
  0
LINE
  5
CD0
  8
WAKU
  6
CONTINUOUS
 10
732.78048799999999
 20
499.51538499999998
 30
0.0
 11
733.17245600000001
 21
500.592308
 31
0.0
  0
LINE
  5
CD1
  8
WAKU
  6
CONTINUOUS
 10
731.70356500000003
 20
499.51538499999998
 30
0.0
 11
732.09553300000005
 21
500.592308
 31
0.0
  0
LINE
  5
CD2
  8
WAKU
  6
CONTINUOUS
 10
728.45220800000004
 20
496.49999999999989
 30
0.0
 11
729.23614399999997
 21
498.65384599999999
 31
0.0
  0
LINE
  5
CD3
  8
WAKU
  6
CONTINUOUS
 10
723.85152900000003
 20
498.65384599999999
 30
0.0
 11
729.23614399999997
 21
498.65384599999999
 31
0.0
  0
LINE
  5
CD4
  8
WAKU
  6
CONTINUOUS
 10
723.06759299999999
 20
496.49999999999989
 30
0.0
 11
723.85152900000003
 21
498.65384599999999
 31
0.0
  0
LINE
  5
CD5
  8
WAKU
  6
CONTINUOUS
 10
723.06759299999999
 20
496.49999999999989
 30
0.0
 11
728.45220800000004
 21
496.49999999999989
 31
0.0
  0
LINE
  5
CD6
  8
WAKU
  6
CONTINUOUS
 10
731.17460599999993
 20
498.65384599999999
 30
0.0
 11
735.15922099999989
 21
498.65384599999999
 31
0.0
  0
LINE
  5
CD7
  8
WAKU
  6
CONTINUOUS
 10
731.70356500000003
 20
499.51538499999998
 30
0.0
 11
732.78048799999999
 21
499.51538499999998
 31
0.0
  0
LINE
  5
CD8
  8
WAKU
  6
CONTINUOUS
 10
730.39066999999989
 20
496.49999999999989
 30
0.0
 11
731.17460599999993
 21
498.65384599999999
 31
0.0
  0
LINE
  5
CD9
  8
WAKU
  6
CONTINUOUS
 10
724.98823600000003
 20
501.77692300000001
 30
0.0
 11
730.37285099999997
 21
501.77692300000001
 31
0.0
  0
LINE
  5
CDA
  8
WAKU
  6
CONTINUOUS
 10
725.61538499999995
 20
503.5
 30
0.0
 11
731.0
 21
503.5
 31
0.0
  0
LINE
  5
CDB
  8
WAKU
  6
CONTINUOUS
 10
724.98823600000003
 20
501.77692300000001
 30
0.0
 11
725.61538499999995
 21
503.5
 31
0.0
  0
LINE
  5
CDC
  8
WAKU
  6
CONTINUOUS
 10
724.32307700000001
 20
503.5
 30
0.0
 11
723.69592799999987
 21
501.77692300000001
 31
0.0
  0
LINE
  5
CDD
  8
WAKU
  6
CONTINUOUS
 10
733.15384600000004
 20
503.5
 30
0.0
 11
734.23076900000001
 21
503.5
 31
0.0
  0
LINE
  5
CDE
  8
WAKU
  6
CONTINUOUS
 10
733.76040799999998
 20
502.20769199999989
 30
0.0
 11
734.23076900000001
 21
503.5
 31
0.0
  0
LINE
  5
CDF
  8
WAKU
  6
CONTINUOUS
 10
731.87579200000005
 20
502.20769199999989
 30
0.0
 11
732.68348500000002
 21
502.20769199999989
 31
0.0
  0
LINE
  5
CE0
  8
WAKU
  6
CONTINUOUS
 10
731.28783999999996
 20
500.592308
 30
0.0
 11
732.09553300000005
 21
500.592308
 31
0.0
  0
LINE
  5
CE1
  8
WAKU
  6
CONTINUOUS
 10
731.28783999999996
 20
500.592308
 30
0.0
 11
731.87579200000005
 21
502.20769199999989
 31
0.0
  0
LINE
  5
CE2
  8
WAKU
  6
CONTINUOUS
 10
732.68348500000002
 20
502.20769199999989
 30
0.0
 11
733.15384600000004
 21
503.5
 31
0.0
  0
LINE
  5
CE3
  8
WAKU
  6
CONTINUOUS
 10
730.37285099999997
 20
501.77692300000001
 30
0.0
 11
731.0
 21
503.5
 31
0.0
  0
LINE
  5
CE4
  8
WAKU
  6
CONTINUOUS
 10
745.75305500000002
 20
501.13076899999999
 30
0.0
 11
748.98382400000003
 21
501.13076899999999
 31
0.0
  0
LINE
  5
CE5
  8
WAKU
  6
CONTINUOUS
 10
745.28269399999999
 20
499.83846199999999
 30
0.0
 11
748.513463
 21
499.83846199999999
 31
0.0
  0
LINE
  5
CE6
  8
WAKU
  6
CONTINUOUS
 10
749.45220800000004
 20
496.49999999999989
 30
0.0
 11
744.06759299999999
 21
496.49999999999989
 31
0.0
  0
LINE
  5
CE7
  8
WAKU
  6
CONTINUOUS
 10
744.85152900000003
 20
498.65384599999999
 30
0.0
 11
749.159221
 21
498.65384599999999
 31
0.0
  0
LINE
  5
CE8
  8
WAKU
  6
CONTINUOUS
 10
745.98823600000003
 20
501.77692300000001
 30
0.0
 11
749.21900499999992
 21
501.77692300000001
 31
0.0
  0
LINE
  5
CE9
  8
WAKU
  6
CONTINUOUS
 10
746.61538499999995
 20
503.5
 30
0.0
 11
749.84615399999996
 21
503.5
 31
0.0
  0
LINE
  5
CEA
  8
WAKU
  6
CONTINUOUS
 10
738.78195800000003
 20
499.73076900000001
 30
0.0
 11
739.56589399999996
 21
501.884615
 31
0.0
  0
LINE
  5
CEB
  8
WAKU
  6
CONTINUOUS
 10
740.18195800000001
 20
499.73076900000001
 30
0.0
 11
740.96589400000005
 21
501.884615
 31
0.0
  0
LINE
  5
CEC
  8
WAKU
  6
CONTINUOUS
 10
739.85888099999988
 20
499.73076900000001
 30
0.0
 11
740.64281700000004
 21
501.884615
 31
0.0
  0
LINE
  5
CED
  8
WAKU
  6
CONTINUOUS
 10
741.25888099999986
 20
499.73076900000001
 30
0.0
 11
742.04281700000001
 21
501.884615
 31
0.0
  0
LINE
  5
CEE
  8
WAKU
  6
CONTINUOUS
 10
741.91374699999994
 20
496.49999999999989
 30
0.0
 11
743.87358700000004
 21
501.884615
 31
0.0
  0
LINE
  5
CEF
  8
WAKU
  6
CONTINUOUS
 10
741.42477599999995
 20
498.11538499999989
 30
0.0
 11
742.79666299999997
 21
501.884615
 31
0.0
  0
LINE
  5
CF0
  8
WAKU
  6
CONTINUOUS
 10
735.45220800000004
 20
496.49999999999989
 30
0.0
 11
736.941687
 21
500.592308
 31
0.0
  0
LINE
  5
CF1
  8
WAKU
  6
CONTINUOUS
 10
737.60605499999997
 20
496.49999999999989
 30
0.0
 11
741.91374699999994
 21
496.49999999999989
 31
0.0
  0
LINE
  5
CF2
  8
WAKU
  6
CONTINUOUS
 10
738.78195800000003
 20
499.73076900000001
 30
0.0
 11
739.85888099999988
 21
499.73076900000001
 31
0.0
  0
LINE
  5
CF3
  8
WAKU
  6
CONTINUOUS
 10
738.19400599999994
 20
498.11538499999989
 30
0.0
 11
741.42477599999995
 21
498.11538499999989
 31
0.0
  0
LINE
  5
CF4
  8
WAKU
  6
CONTINUOUS
 10
737.60605499999997
 20
496.49999999999989
 30
0.0
 11
738.19400599999994
 21
498.11538499999989
 31
0.0
  0
LINE
  5
CF5
  8
WAKU
  6
CONTINUOUS
 10
740.18195800000001
 20
499.73076900000001
 30
0.0
 11
741.25888099999986
 21
499.73076900000001
 31
0.0
  0
LINE
  5
CF6
  8
WAKU
  6
CONTINUOUS
 10
744.06759299999999
 20
496.49999999999989
 30
0.0
 11
744.85152900000003
 21
498.65384599999999
 31
0.0
  0
LINE
  5
CF7
  8
WAKU
  6
CONTINUOUS
 10
740.96589400000005
 20
501.884615
 30
0.0
 11
742.04281700000001
 21
501.884615
 31
0.0
  0
LINE
  5
CF8
  8
WAKU
  6
CONTINUOUS
 10
736.92307699999992
 20
503.5
 30
0.0
 11
738.0
 21
503.5
 31
0.0
  0
LINE
  5
CF9
  8
WAKU
  6
CONTINUOUS
 10
737.52963799999986
 20
502.20769199999989
 30
0.0
 11
738.0
 21
503.5
 31
0.0
  0
LINE
  5
CFA
  8
WAKU
  6
CONTINUOUS
 10
737.52963799999986
 20
502.20769199999989
 30
0.0
 11
738.33733099999995
 21
502.20769199999989
 31
0.0
  0
LINE
  5
CFB
  8
WAKU
  6
CONTINUOUS
 10
736.941687
 20
500.592308
 30
0.0
 11
737.74937899999986
 21
500.592308
 31
0.0
  0
LINE
  5
CFC
  8
WAKU
  6
CONTINUOUS
 10
737.74937899999986
 20
500.592308
 30
0.0
 11
738.33733099999995
 21
502.20769199999989
 31
0.0
  0
LINE
  5
CFD
  8
WAKU
  6
CONTINUOUS
 10
739.56589399999996
 20
501.884615
 30
0.0
 11
740.64281700000004
 21
501.884615
 31
0.0
  0
LINE
  5
CFE
  8
WAKU
  6
CONTINUOUS
 10
736.45271500000001
 20
502.20769199999989
 30
0.0
 11
736.92307699999992
 21
503.5
 31
0.0
  0
LINE
  5
CFF
  8
WAKU
  6
CONTINUOUS
 10
746.61538499999995
 20
503.5
 30
0.0
 11
745.98823600000003
 21
501.77692300000001
 31
0.0
  0
LINE
  5
D00
  8
WAKU
  6
CONTINUOUS
 10
745.75305500000002
 20
501.13076899999999
 30
0.0
 11
745.28269399999999
 21
499.83846199999999
 31
0.0
  0
LINE
  5
D01
  8
WAKU
  6
CONTINUOUS
 10
742.79666299999997
 20
501.884615
 30
0.0
 11
743.87358700000004
 21
501.884615
 31
0.0
  0
LINE
  5
D02
  8
WAKU
  6
CONTINUOUS
 10
749.159221
 20
498.65384599999999
 30
0.0
 11
750.92307699999992
 21
503.5
 31
0.0
  0
LINE
  5
D03
  8
WAKU
  6
CONTINUOUS
 10
749.45220800000004
 20
496.49999999999989
 30
0.0
 11
752.0
 21
503.5
 31
0.0
  0
LINE
  5
D04
  8
WAKU
  6
CONTINUOUS
 10
749.21900499999992
 20
501.77692300000001
 30
0.0
 11
749.84615399999996
 21
503.5
 31
0.0
  0
LINE
  5
D05
  8
WAKU
  6
CONTINUOUS
 10
750.92307699999992
 20
503.5
 30
0.0
 11
752.0
 21
503.5
 31
0.0
  0
LINE
  5
D06
  8
WAKU
  6
CONTINUOUS
 10
748.513463
 20
499.83846199999999
 30
0.0
 11
748.98382400000003
 21
501.13076899999999
 31
0.0
  0
LINE
  5
D07
  8
WAKU
  6
CONTINUOUS
 10
709.82864600000005
 20
497.10779099999991
 30
0.0
 11
709.96682399999986
 21
496.82952599999987
 31
0.0
  0
LINE
  5
D08
  8
WAKU
  6
CONTINUOUS
 10
709.96682399999986
 20
496.82952599999987
 30
0.0
 11
710.193309
 21
496.63466399999999
 31
0.0
  0
LINE
  5
D09
  8
WAKU
  6
CONTINUOUS
 10
710.193309
 20
496.63466399999999
 30
0.0
 11
710.49978199999998
 21
496.53036100000003
 31
0.0
  0
LINE
  5
D0A
  8
WAKU
  6
CONTINUOUS
 10
710.49978199999998
 20
496.53036100000003
 30
0.0
 11
710.87498700000003
 21
496.52044899999999
 31
0.0
  0
LINE
  5
D0B
  8
WAKU
  6
CONTINUOUS
 10
710.87498700000003
 20
496.52044899999999
 30
0.0
 11
711.30514200000005
 21
496.60529100000002
 31
0.0
  0
LINE
  5
D0C
  8
WAKU
  6
CONTINUOUS
 10
711.30514200000005
 20
496.60529100000002
 30
0.0
 11
711.77444799999989
 21
496.78177299999999
 31
0.0
  0
LINE
  5
D0D
  8
WAKU
  6
CONTINUOUS
 10
711.77444799999989
 20
496.78177299999999
 30
0.0
 11
712.26566600000001
 21
497.04341099999999
 31
0.0
  0
LINE
  5
D0E
  8
WAKU
  6
CONTINUOUS
 10
712.26566600000001
 20
497.04341099999999
 30
0.0
 11
712.76075600000001
 21
497.38059500000003
 31
0.0
  0
LINE
  5
D0F
  8
WAKU
  6
CONTINUOUS
 10
712.76075600000001
 20
497.38059500000003
 30
0.0
 11
713.24153199999989
 21
497.78094099999998
 31
0.0
  0
LINE
  5
D10
  8
WAKU
  6
CONTINUOUS
 10
713.24153199999989
 20
497.78094099999998
 30
0.0
 11
713.69033499999989
 21
498.22974399999998
 31
0.0
  0
LINE
  5
D11
  8
WAKU
  6
CONTINUOUS
 10
713.69033499999989
 20
498.22974399999998
 30
0.0
 11
714.09068099999979
 21
498.71051999999997
 31
0.0
  0
LINE
  5
D12
  8
WAKU
  6
CONTINUOUS
 10
714.09068099999979
 20
498.71051999999997
 30
0.0
 11
714.427865
 21
499.20560899999998
 31
0.0
  0
LINE
  5
D13
  8
WAKU
  6
CONTINUOUS
 10
714.427865
 20
499.20560899999998
 30
0.0
 11
714.68950299999995
 21
499.69682799999998
 31
0.0
  0
LINE
  5
D14
  8
WAKU
  6
CONTINUOUS
 10
714.68950299999995
 20
499.69682799999998
 30
0.0
 11
714.86598400000003
 21
500.166134
 31
0.0
  0
LINE
  5
D15
  8
WAKU
  6
CONTINUOUS
 10
714.86598400000003
 20
500.166134
 30
0.0
 11
714.950827
 21
500.5962889999999
 31
0.0
  0
LINE
  5
D16
  8
WAKU
  6
CONTINUOUS
 10
714.950827
 20
500.5962889999999
 30
0.0
 11
714.94091500000002
 21
500.9714929999999
 31
0.0
  0
LINE
  5
D17
  8
WAKU
  6
CONTINUOUS
 10
714.94091500000002
 20
500.9714929999999
 30
0.0
 11
714.83661199999995
 21
501.27796699999988
 31
0.0
  0
LINE
  5
D18
  8
WAKU
  6
CONTINUOUS
 10
714.83661199999995
 20
501.27796699999988
 30
0.0
 11
714.641749
 21
501.50445200000001
 31
0.0
  0
LINE
  5
D19
  8
WAKU
  6
CONTINUOUS
 10
714.641749
 20
501.50445200000001
 30
0.0
 11
714.36348399999986
 21
501.64263
 31
0.0
  0
LINE
  5
D1A
  8
WAKU
  6
CONTINUOUS
 10
713.91694099999995
 20
501.683944
 30
0.0
 11
713.48263599999996
 21
501.60801399999991
 31
0.0
  0
LINE
  5
D1B
  8
WAKU
  6
CONTINUOUS
 10
713.48263599999996
 20
501.60801399999991
 30
0.0
 11
713.00563899999997
 21
501.43576799999988
 31
0.0
  0
LINE
  5
D1C
  8
WAKU
  6
CONTINUOUS
 10
713.00563899999997
 20
501.43576799999988
 30
0.0
 11
712.50426900000002
 21
501.17382099999992
 31
0.0
  0
LINE
  5
D1D
  8
WAKU
  6
CONTINUOUS
 10
712.50426900000002
 20
501.17382099999992
 30
0.0
 11
711.99778300000003
 21
500.83223499999991
 31
0.0
  0
LINE
  5
D1E
  8
WAKU
  6
CONTINUOUS
 10
711.99778300000003
 20
500.83223499999991
 30
0.0
 11
711.50563199999988
 21
500.424128
 31
0.0
  0
LINE
  5
D1F
  8
WAKU
  6
CONTINUOUS
 10
711.50563199999988
 20
500.424128
 30
0.0
 11
711.04672000000005
 21
499.96517399999999
 31
0.0
  0
LINE
  5
D20
  8
WAKU
  6
CONTINUOUS
 10
711.04672000000005
 20
499.96517399999999
 30
0.0
 11
710.63867100000004
 21
499.47300000000001
 31
0.0
  0
LINE
  5
D21
  8
WAKU
  6
CONTINUOUS
 10
710.63867100000004
 20
499.47300000000001
 30
0.0
 11
710.29715599999997
 21
498.96650899999992
 31
0.0
  0
LINE
  5
D22
  8
WAKU
  6
CONTINUOUS
 10
710.29715599999997
 20
498.96650899999992
 30
0.0
 11
710.03529300000002
 21
498.46515399999993
 31
0.0
  0
LINE
  5
D23
  8
WAKU
  6
CONTINUOUS
 10
710.03529300000002
 20
498.46515399999993
 30
0.0
 11
709.86313899999993
 21
497.98818899999992
 31
0.0
  0
LINE
  5
D24
  8
WAKU
  6
CONTINUOUS
 10
709.86313899999993
 20
497.98818899999992
 30
0.0
 11
709.78730499999995
 21
497.55393500000002
 31
0.0
  0
LINE
  5
D25
  8
WAKU
  6
CONTINUOUS
 10
710.17291099999989
 20
497.45185599999991
 30
0.0
 11
710.68139500000007
 21
497.53919500000001
 31
0.0
  0
LINE
  5
D26
  8
WAKU
  6
CONTINUOUS
 10
710.68139500000007
 20
497.53919500000001
 30
0.0
 11
711.31226300000003
 21
497.81033200000002
 31
0.0
  0
LINE
  5
D27
  8
WAKU
  6
CONTINUOUS
 10
711.31226300000003
 20
497.81033200000002
 30
0.0
 11
711.98994000000005
 21
498.25143100000003
 31
0.0
  0
LINE
  5
D28
  8
WAKU
  6
CONTINUOUS
 10
711.98994000000005
 20
498.25143100000003
 30
0.0
 11
712.64629600000001
 21
498.8255059999999
 31
0.0
  0
LINE
  5
D29
  8
WAKU
  6
CONTINUOUS
 10
712.64629600000001
 20
498.8255059999999
 30
0.0
 11
713.22023799999988
 21
499.48192
 31
0.0
  0
LINE
  5
D2A
  8
WAKU
  6
CONTINUOUS
 10
713.22023799999988
 20
499.48192
 30
0.0
 11
713.66135299999996
 21
500.15953400000001
 31
0.0
  0
LINE
  5
D2B
  8
WAKU
  6
CONTINUOUS
 10
713.66135299999996
 20
500.15953400000001
 30
0.0
 11
713.93207099999995
 21
500.79040199999992
 31
0.0
  0
LINE
  5
D2C
  8
WAKU
  6
CONTINUOUS
 10
713.93207099999995
 20
500.79040199999992
 30
0.0
 11
714.01922899999988
 21
501.29856899999999
 31
0.0
  0
LINE
  5
D2D
  8
WAKU
  6
CONTINUOUS
 10
713.91694099999995
 20
501.683944
 30
0.0
 11
713.79914800000006
 21
501.78192899999999
 31
0.0
  0
LINE
  5
D2E
  8
WAKU
  6
CONTINUOUS
 10
713.79914800000006
 20
501.78192899999999
 30
0.0
 11
713.59799599999997
 21
501.84090199999991
 31
0.0
  0
LINE
  5
D2F
  8
WAKU
  6
CONTINUOUS
 10
713.59799599999997
 20
501.84090199999991
 30
0.0
 11
713.29085699999996
 21
501.83558099999988
 31
0.0
  0
LINE
  5
D30
  8
WAKU
  6
CONTINUOUS
 10
713.29085699999996
 20
501.83558099999988
 30
0.0
 11
712.89513999999997
 21
501.7400649999999
 31
0.0
  0
LINE
  5
D31
  8
WAKU
  6
CONTINUOUS
 10
712.89513999999997
 20
501.7400649999999
 30
0.0
 11
712.44023499999992
 21
501.54758499999991
 31
0.0
  0
LINE
  5
D32
  8
WAKU
  6
CONTINUOUS
 10
712.44023499999992
 20
501.54758499999991
 30
0.0
 11
711.95458699999995
 21
501.26428399999992
 31
0.0
  0
LINE
  5
D33
  8
WAKU
  6
CONTINUOUS
 10
711.95458699999995
 20
501.26428399999992
 30
0.0
 11
710.99609800000007
 21
500.47510799999998
 31
0.0
  0
LINE
  5
D34
  8
WAKU
  6
CONTINUOUS
 10
710.99609800000007
 20
500.47510799999998
 30
0.0
 11
710.20703499999991
 21
499.51657
 31
0.0
  0
LINE
  5
D35
  8
WAKU
  6
CONTINUOUS
 10
710.20703499999991
 20
499.51657
 30
0.0
 11
709.92351900000006
 21
499.03102799999999
 31
0.0
  0
LINE
  5
D36
  8
WAKU
  6
CONTINUOUS
 10
709.92351900000006
 20
499.03102799999999
 30
0.0
 11
709.73149000000001
 21
498.57602099999991
 31
0.0
  0
LINE
  5
D37
  8
WAKU
  6
CONTINUOUS
 10
709.73149000000001
 20
498.57602099999991
 30
0.0
 11
709.63569600000005
 21
498.18040400000001
 31
0.0
  0
LINE
  5
D38
  8
WAKU
  6
CONTINUOUS
 10
709.63569600000005
 20
498.18040400000001
 30
0.0
 11
709.63035799999989
 21
497.87308699999988
 31
0.0
  0
LINE
  5
D39
  8
WAKU
  6
CONTINUOUS
 10
709.63035799999989
 20
497.87308699999988
 30
0.0
 11
709.68915500000003
 21
497.67243499999989
 31
0.0
  0
LINE
  5
D3A
  8
WAKU
  6
CONTINUOUS
 10
709.68915500000003
 20
497.67243499999989
 30
0.0
 11
709.78730499999995
 21
497.55393500000002
 31
0.0
  0
LINE
  5
D3B
  8
WAKU
  6
CONTINUOUS
 10
710.27517699999999
 20
497.06647600000002
 30
0.0
 11
710.39292699999999
 21
496.96856799999989
 31
0.0
  0
LINE
  5
D3C
  8
WAKU
  6
CONTINUOUS
 10
710.39292699999999
 20
496.96856799999989
 30
0.0
 11
710.59417699999995
 21
496.90949799999999
 31
0.0
  0
LINE
  5
D3D
  8
WAKU
  6
CONTINUOUS
 10
710.59417699999995
 20
496.90949799999999
 30
0.0
 11
710.90129400000001
 21
496.91486299999991
 31
0.0
  0
LINE
  5
D3E
  8
WAKU
  6
CONTINUOUS
 10
710.90129400000001
 20
496.91486299999991
 30
0.0
 11
711.29698399999995
 21
497.01036800000003
 31
0.0
  0
LINE
  5
D3F
  8
WAKU
  6
CONTINUOUS
 10
711.29698399999995
 20
497.01036800000003
 30
0.0
 11
711.75188200000002
 21
497.20279799999997
 31
0.0
  0
LINE
  5
D40
  8
WAKU
  6
CONTINUOUS
 10
711.75188200000002
 20
497.20279799999997
 30
0.0
 11
712.23749699999996
 21
497.48611699999992
 31
0.0
  0
LINE
  5
D41
  8
WAKU
  6
CONTINUOUS
 10
712.23749699999996
 20
497.48611699999992
 30
0.0
 11
713.19596499999989
 21
498.27523200000002
 31
0.0
  0
LINE
  5
D42
  8
WAKU
  6
CONTINUOUS
 10
713.19596499999989
 20
498.27523200000002
 30
0.0
 11
713.98505
 21
499.2337179999999
 31
0.0
  0
LINE
  5
D43
  8
WAKU
  6
CONTINUOUS
 10
713.98505
 20
499.2337179999999
 30
0.0
 11
714.26850699999989
 21
499.71927799999997
 31
0.0
  0
LINE
  5
D44
  8
WAKU
  6
CONTINUOUS
 10
714.26850699999989
 20
499.71927799999997
 30
0.0
 11
714.46070999999995
 21
500.17424799999998
 31
0.0
  0
LINE
  5
D45
  8
WAKU
  6
CONTINUOUS
 10
714.46070999999995
 20
500.17424799999998
 30
0.0
 11
714.55636100000004
 21
500.56986399999988
 31
0.0
  0
LINE
  5
D46
  8
WAKU
  6
CONTINUOUS
 10
714.55636100000004
 20
500.56986399999988
 30
0.0
 11
714.56180199999994
 21
500.877253
 31
0.0
  0
LINE
  5
D47
  8
WAKU
  6
CONTINUOUS
 10
714.56180199999994
 20
500.877253
 30
0.0
 11
714.50295099999994
 21
501.0779179999999
 31
0.0
  0
LINE
  5
D48
  8
WAKU
  6
CONTINUOUS
 10
714.50295099999994
 20
501.0779179999999
 30
0.0
 11
714.40481
 21
501.19624900000002
 31
0.0
  0
LINE
  5
D49
  8
WAKU
  6
CONTINUOUS
 10
714.01922899999988
 20
501.29856899999999
 30
0.0
 11
713.51073799999995
 21
501.21123999999998
 31
0.0
  0
LINE
  5
D4A
  8
WAKU
  6
CONTINUOUS
 10
713.51073799999995
 20
501.21123999999998
 30
0.0
 11
712.87987800000008
 21
500.94005700000002
 31
0.0
  0
LINE
  5
D4B
  8
WAKU
  6
CONTINUOUS
 10
712.87987800000008
 20
500.94005700000002
 30
0.0
 11
712.20218099999988
 21
500.49899099999988
 31
0.0
  0
LINE
  5
D4C
  8
WAKU
  6
CONTINUOUS
 10
712.20218099999988
 20
500.49899099999988
 30
0.0
 11
711.54582699999992
 21
499.924893
 31
0.0
  0
LINE
  5
D4D
  8
WAKU
  6
CONTINUOUS
 10
711.54582699999992
 20
499.924893
 30
0.0
 11
710.97189600000002
 21
499.26847099999992
 31
0.0
  0
LINE
  5
D4E
  8
WAKU
  6
CONTINUOUS
 10
710.97189600000002
 20
499.26847099999992
 30
0.0
 11
710.53071199999988
 21
498.59087499999998
 31
0.0
  0
LINE
  5
D4F
  8
WAKU
  6
CONTINUOUS
 10
710.53071199999988
 20
498.59087499999998
 30
0.0
 11
710.26016800000002
 21
497.959969
 31
0.0
  0
LINE
  5
D50
  8
WAKU
  6
CONTINUOUS
 10
710.26016800000002
 20
497.959969
 30
0.0
 11
710.17291099999989
 21
497.45185599999991
 31
0.0
  0
LINE
  5
D51
  8
WAKU
  6
CONTINUOUS
 10
710.27517699999999
 20
497.06647600000002
 30
0.0
 11
710.70945800000004
 21
497.14239700000002
 31
0.0
  0
LINE
  5
D52
  8
WAKU
  6
CONTINUOUS
 10
710.70945800000004
 20
497.14239700000002
 30
0.0
 11
711.18642799999986
 21
497.31462499999998
 31
0.0
  0
LINE
  5
D53
  8
WAKU
  6
CONTINUOUS
 10
711.18642799999986
 20
497.31462499999998
 30
0.0
 11
711.68776999999989
 21
497.5765449999999
 31
0.0
  0
LINE
  5
D54
  8
WAKU
  6
CONTINUOUS
 10
711.68776999999989
 20
497.5765449999999
 30
0.0
 11
712.19423200000006
 21
497.91809899999998
 31
0.0
  0
LINE
  5
D55
  8
WAKU
  6
CONTINUOUS
 10
712.19423200000006
 20
497.91809899999998
 30
0.0
 11
712.68636300000003
 21
498.32617099999987
 31
0.0
  0
LINE
  5
D56
  8
WAKU
  6
CONTINUOUS
 10
712.68636300000003
 20
498.32617099999987
 30
0.0
 11
713.14526599999988
 21
498.78508899999991
 31
0.0
  0
LINE
  5
D57
  8
WAKU
  6
CONTINUOUS
 10
713.14526599999988
 20
498.78508899999991
 30
0.0
 11
713.553316
 21
499.27722899999992
 31
0.0
  0
LINE
  5
D58
  8
WAKU
  6
CONTINUOUS
 10
713.553316
 20
499.27722899999992
 30
0.0
 11
713.89484299999992
 21
499.78369300000003
 31
0.0
  0
LINE
  5
D59
  8
WAKU
  6
CONTINUOUS
 10
713.89484299999992
 20
499.78369300000003
 30
0.0
 11
714.15673200000003
 21
500.28503000000001
 31
0.0
  0
LINE
  5
D5A
  8
WAKU
  6
CONTINUOUS
 10
714.15673200000003
 20
500.28503000000001
 30
0.0
 11
714.32892500000003
 21
500.76198699999998
 31
0.0
  0
LINE
  5
D5B
  8
WAKU
  6
CONTINUOUS
 10
714.32892500000003
 20
500.76198699999998
 30
0.0
 11
714.40481
 21
501.19624900000002
 31
0.0
  0
LINE
  5
D5C
  8
WAKU
  6
CONTINUOUS
 10
714.36348399999986
 20
501.64263
 30
0.0
 11
714.22530599999993
 21
501.92089499999997
 31
0.0
  0
LINE
  5
D5D
  8
WAKU
  6
CONTINUOUS
 10
714.22530599999993
 20
501.92089499999997
 30
0.0
 11
713.99882100000002
 21
502.11575699999997
 31
0.0
  0
LINE
  5
D5E
  8
WAKU
  6
CONTINUOUS
 10
713.99882100000002
 20
502.11575699999997
 30
0.0
 11
713.69234800000004
 21
502.22005999999988
 31
0.0
  0
LINE
  5
D5F
  8
WAKU
  6
CONTINUOUS
 10
713.69234800000004
 20
502.22005999999988
 30
0.0
 11
713.31714299999987
 21
502.22997199999992
 31
0.0
  0
LINE
  5
D60
  8
WAKU
  6
CONTINUOUS
 10
713.31714299999987
 20
502.22997199999992
 30
0.0
 11
712.88698799999986
 21
502.14512899999988
 31
0.0
  0
LINE
  5
D61
  8
WAKU
  6
CONTINUOUS
 10
712.88698799999986
 20
502.14512899999988
 30
0.0
 11
712.41768300000001
 21
501.96864799999997
 31
0.0
  0
LINE
  5
D62
  8
WAKU
  6
CONTINUOUS
 10
712.41768300000001
 20
501.96864799999997
 30
0.0
 11
711.9264639999999
 21
501.70700999999991
 31
0.0
  0
LINE
  5
D63
  8
WAKU
  6
CONTINUOUS
 10
711.9264639999999
 20
501.70700999999991
 30
0.0
 11
711.43137400000001
 21
501.36982599999988
 31
0.0
  0
LINE
  5
D64
  8
WAKU
  6
CONTINUOUS
 10
711.43137400000001
 20
501.36982599999988
 30
0.0
 11
710.95059900000001
 21
500.96947999999998
 31
0.0
  0
LINE
  5
D65
  8
WAKU
  6
CONTINUOUS
 10
710.95059900000001
 20
500.96947999999998
 30
0.0
 11
710.50179500000002
 21
500.52067699999998
 31
0.0
  0
LINE
  5
D66
  8
WAKU
  6
CONTINUOUS
 10
710.50179500000002
 20
500.52067699999998
 30
0.0
 11
710.10144899999989
 21
500.03990099999987
 31
0.0
  0
LINE
  5
D67
  8
WAKU
  6
CONTINUOUS
 10
710.10144899999989
 20
500.03990099999987
 30
0.0
 11
709.76426500000002
 21
499.54481199999998
 31
0.0
  0
LINE
  5
D68
  8
WAKU
  6
CONTINUOUS
 10
709.76426500000002
 20
499.54481199999998
 30
0.0
 11
709.50262699999985
 21
499.05359299999998
 31
0.0
  0
LINE
  5
D69
  8
WAKU
  6
CONTINUOUS
 10
709.50262699999985
 20
499.05359299999998
 30
0.0
 11
709.32614599999988
 21
498.5842869999999
 31
0.0
  0
LINE
  5
D6A
  8
WAKU
  6
CONTINUOUS
 10
709.32614599999988
 20
498.5842869999999
 30
0.0
 11
709.24130300000002
 21
498.15413199999989
 31
0.0
  0
LINE
  5
D6B
  8
WAKU
  6
CONTINUOUS
 10
709.24130300000002
 20
498.15413199999989
 30
0.0
 11
709.251215
 21
497.77892800000001
 31
0.0
  0
LINE
  5
D6C
  8
WAKU
  6
CONTINUOUS
 10
709.251215
 20
497.77892800000001
 30
0.0
 11
709.35551799999996
 21
497.47245400000003
 31
0.0
  0
LINE
  5
D6D
  8
WAKU
  6
CONTINUOUS
 10
709.35551799999996
 20
497.47245400000003
 30
0.0
 11
709.55038100000002
 21
497.245969
 31
0.0
  0
LINE
  5
D6E
  8
WAKU
  6
CONTINUOUS
 10
709.55038100000002
 20
497.245969
 30
0.0
 11
709.82864600000005
 21
497.10779099999991
 31
0.0
  0
INSERT
  5
D6F
  8
WAKU
  6
CONTINUOUS
  2
*U0
 10
340.0
 20
213.0
 30
0.0
1001
ACAD
1002
{
1000
R14_HATCH_DATA
1000
D6F
1011
341.0
1021
0.0
1031
0.0
1021
213.0
1031
0.0
1011
340.0
1021
0.0
1031
0.0
1021
214.0
1031
0.0
1011
340.0
1021
0.0
1031
0.0
1021
213.0
1031
1.0
1040
0.0
1010
0.0
1020
0.0
1030
1.0
1000
SOLID
1070
     1
1070
     1
1071
       15
1071
        7
1070
     0
1070
     1
1071
        3
1040
372.24905299999989
1040
290.5
1040
367.97127599999999
1040
290.5
1040
367.97127599999999
1040
286.22222199999999
1071
        3
1005
CC0
1005
CC2
1005
CC1
1071
        7
1070
     0
1070
     1
1071
       38
1040
373.99882100000002
1040
289.11575699999992
1040
373.69234799999992
1040
289.22005999999988
1040
373.31714299999999
1040
289.22997199999998
1040
372.88698799999992
1040
289.145129
1040
372.41768300000001
1040
288.96864799999992
1040
371.92646400000001
1040
288.70701000000003
1040
371.43137400000001
1040
288.36982599999999
1040
370.95059900000001
1040
287.96947999999992
1040
370.50179500000002
1040
287.52067699999992
1040
370.10144899999989
1040
287.03990099999987
1040
369.76426499999991
1040
286.54481199999998
1040
369.50262700000002
1040
286.05359299999998
1040
369.32614599999988
1040
285.58428700000002
1040
369.2413029999999
1040
285.15413199999989
1040
369.251215
1040
284.77892800000001
1040
369.35551800000002
1040
284.47245400000003
1040
369.55038100000002
1040
284.245969
1040
369.82864599999988
1040
284.10779100000002
1040
369.96682399999997
1040
283.82952599999987
1040
370.193309
1040
283.63466399999999
1040
370.49978199999993
1040
283.53036100000003
1040
370.87498699999998
1040
283.52044899999999
1040
371.30514199999988
1040
283.60529100000002
1040
371.77444800000001
1040
283.78177299999987
1040
372.26566600000001
1040
284.04341099999988
1040
372.76075600000001
1040
284.38059500000003
1040
373.24153200000001
1040
284.78094099999998
1040
373.69033499999989
1040
285.22974399999998
1040
374.09068100000002
1040
285.71051999999997
1040
374.427865
1040
286.20560899999992
1040
374.689503
1040
286.69682799999998
1040
374.86598399999991
1040
287.166134
1040
374.950827
1040
287.59628900000001
1040
374.94091500000002
1040
287.97149300000001
1040
374.836612
1040
288.27796699999999
1040
374.641749
1040
288.50445200000001
1040
374.36348399999991
1040
288.64263
1040
374.22530599999988
1040
288.92089499999997
1071
       38
1005
D5D
1005
D5E
1005
D5F
1005
D60
1005
D61
1005
D62
1005
D63
1005
D64
1005
D65
1005
D66
1005
D67
1005
D68
1005
D69
1005
D6A
1005
D6B
1005
D6C
1005
D6D
1005
D6E
1005
D07
1005
D08
1005
D09
1005
D0A
1005
D0B
1005
D0C
1005
D0D
1005
D0E
1005
D0F
1005
D10
1005
D11
1005
D12
1005
D13
1005
D14
1005
D15
1005
D16
1005
D17
1005
D18
1005
D19
1005
D5C
1071
       22
1070
     0
1070
     1
1071
       25
1040
373.799148
1040
288.78192899999988
1040
373.91694100000001
1040
288.683944
1040
373.48263600000001
1040
288.60801400000003
1040
373.00563899999997
1040
288.43576799999988
1040
372.50426900000002
1040
288.17382099999992
1040
371.99778300000003
1040
287.83223500000003
1040
371.50563199999988
1040
287.424128
1040
371.04671999999999
1040
286.96517399999999
1040
370.63867099999987
1040
286.47300000000001
1040
370.29715599999997
1040
285.96650899999992
1040
370.03529300000002
1040
285.46515399999993
1040
369.86313899999999
1040
284.98818899999998
1040
369.787305
1040
284.55393500000002
1040
369.68915499999991
1040
284.67243500000001
1040
369.63035799999989
1040
284.873087
1040
369.635696
1040
285.18040400000001
1040
369.73149000000001
1040
285.57602099999991
1040
369.923519
1040
286.03102799999988
1040
370.20703500000002
1040
286.51657
1040
370.99609800000002
1040
287.47510799999998
1040
371.954587
1040
288.26428399999992
1040
372.44023499999997
1040
288.54758500000003
1040
372.89513999999991
1040
288.74006500000002
1040
373.2908569999999
1040
288.83558099999988
1040
373.59799600000002
1040
288.84090200000003
1071
       25
1005
D2D
1005
D1A
1005
D1B
1005
D1C
1005
D1D
1005
D1E
1005
D1F
1005
D20
1005
D21
1005
D22
1005
D23
1005
D24
1005
D3A
1005
D39
1005
D38
1005
D37
1005
D36
1005
D35
1005
D34
1005
D33
1005
D32
1005
D31
1005
D30
1005
D2F
1005
D2E
1071
       22
1070
     0
1070
     1
1071
       16
1040
374.01922899999988
1040
288.29856899999987
1040
373.93207100000001
1040
287.79040199999997
1040
373.66135299999991
1040
287.15953400000001
1040
373.22023799999988
1040
286.48191999999989
1040
372.64629600000001
1040
285.82550600000002
1040
371.98993999999999
1040
285.25143100000003
1040
371.31226299999992
1040
284.8103319999999
1040
370.68139500000001
1040
284.53919500000001
1040
370.172911
1040
284.45185600000002
1040
370.26016800000002
1040
284.959969
1040
370.53071199999999
1040
285.59087499999993
1040
370.97189600000002
1040
286.26847099999992
1040
371.54582699999992
1040
286.92489299999988
1040
372.202181
1040
287.49899099999999
1040
372.87987799999991
1040
287.94005699999991
1040
373.510738
1040
288.21123999999998
1071
       16
1005
D2C
1005
D2B
1005
D2A
1005
D29
1005
D28
1005
D27
1005
D26
1005
D25
1005
D50
1005
D4F
1005
D4E
1005
D4D
1005
D4C
1005
D4B
1005
D4A
1005
D49
1071
       22
1070
     0
1070
     1
1071
       25
1040
374.40481
1040
288.19624900000002
1040
374.502951
1040
288.07791800000001
1040
374.561802
1040
287.87725299999988
1040
374.55636099999998
1040
287.56986399999988
1040
374.46071000000001
1040
287.17424799999992
1040
374.268507
1040
286.71927799999992
1040
373.98505
1040
286.23371800000001
1040
373.195965
1040
285.2752319999999
1040
372.23749700000002
1040
284.48611699999992
1040
371.75188199999991
1040
284.20279799999992
1040
371.2969839999999
1040
284.01036800000003
1040
370.90129400000001
1040
283.91486300000003
1040
370.59417699999989
1040
283.90949799999999
1040
370.39292699999987
1040
283.968568
1040
370.27517699999993
1040
284.06647599999991
1040
370.70945799999993
1040
284.14239700000002
1040
371.18642799999992
1040
284.31462499999992
1040
371.68776999999989
1040
284.57654500000001
1040
372.194232
1040
284.91809899999998
1040
372.68636299999991
1040
285.32617099999987
1040
373.14526599999988
1040
285.78508900000003
1040
373.553316
1040
286.27722899999992
1040
373.89484299999998
1040
286.78369300000003
1040
374.15673199999992
1040
287.28502999999989
1040
374.32892500000003
1040
287.76198699999998
1071
       25
1005
D48
1005
D47
1005
D46
1005
D45
1005
D44
1005
D43
1005
D42
1005
D41
1005
D40
1005
D3F
1005
D3E
1005
D3D
1005
D3C
1005
D3B
1005
D51
1005
D52
1005
D53
1005
D54
1005
D55
1005
D56
1005
D57
1005
D58
1005
D59
1005
D5A
1005
D5B
1071
        7
1070
     0
1070
     1
1071
       14
1040
378.72307699999988
1040
290.5
1040
378.0959279999999
1040
288.7769229999999
1040
380.31131299999993
1040
288.7769229999999
1040
377.15520499999991
1040
286.19230800000003
1040
376.17528499999997
1040
283.49999999999989
1040
379.39714500000002
1040
286.13846199999989
1040
378.436824
1040
283.49999999999989
1040
379.51374700000002
1040
283.49999999999989
1040
380.49366700000002
1040
286.19230800000003
1040
381.775285
1040
283.49999999999989
1040
382.75520499999988
1040
286.19230800000003
1040
381.5248509999999
1040
288.7769229999999
1040
383.69592799999992
1040
288.7769229999999
1040
384.32307700000001
1040
290.5
1071
       14
1005
CC4
1005
CCF
1005
CCE
1005
CC5
1005
CC7
1005
CC8
1005
CCD
1005
CCC
1005
CCB
1005
CCA
1005
CC9
1005
CC6
1005
CC3
1005
CDC
1071
        7
1070
     0
1070
     1
1071
        4
1040
385.615385
1040
290.5
1040
384.98823599999992
1040
288.7769229999999
1040
390.37285099999991
1040
288.7769229999999
1040
391.0
1040
290.5
1071
        4
1005
CDA
1005
CDB
1005
CD9
1005
CE3
1071
        7
1070
     0
1070
     1
1071
        4
1040
388.45220799999993
1040
283.49999999999989
1040
389.23614399999991
1040
285.65384599999987
1040
383.85152900000003
1040
285.65384599999987
1040
383.06759299999999
1040
283.49999999999989
1071
        4
1005
CD3
1005
CD4
1005
CD5
1005
CD2
1071
        7
1070
     0
1070
     1
1071
       22
1040
395.45220799999993
1040
283.49999999999989
1040
396.941687
1040
287.592308
1040
397.74937899999998
1040
287.592308
1040
398.33733100000001
1040
289.20769200000001
1040
397.52963799999992
1040
289.20769200000001
1040
398.0
1040
290.5
1040
396.92307699999992
1040
290.5
1040
396.45271500000001
1040
289.20769200000001
1040
393.76040799999993
1040
289.20769200000001
1040
394.23076900000001
1040
290.5
1040
393.15384599999999
1040
290.5
1040
392.68348500000002
1040
289.20769200000001
1040
391.87579199999999
1040
289.20769200000001
1040
391.28784000000002
1040
287.592308
1040
392.09553299999988
1040
287.592308
1040
391.70356499999991
1040
286.51538499999998
1040
392.78048799999999
1040
286.51538499999998
1040
393.17245600000001
1040
287.592308
1040
395.86476299999993
1040
287.592308
1040
395.159221
1040
285.65384599999987
1040
391.17460599999998
1040
285.65384599999987
1040
390.39067
1040
283.49999999999989
1071
       22
1005
CFB
1005
CFC
1005
CFA
1005
CF9
1005
CF8
1005
CFE
1005
CBC
1005
CDE
1005
CDD
1005
CE2
1005
CDF
1005
CE1
1005
CE0
1005
CD1
1005
CD7
1005
CD0
1005
CBD
1005
CBF
1005
CD6
1005
CD8
1005
CBE
1005
CF0
1071
        7
1070
     0
1070
     1
1071
        6
1040
398.19400599999989
1040
285.115385
1040
397.60605499999991
1040
283.49999999999989
1040
401.913747
1040
283.49999999999989
1040
403.87358699999999
1040
288.884615
1040
402.79666299999991
1040
288.884615
1040
401.42477599999989
1040
285.115385
1071
        6
1005
D01
1005
CEF
1005
CF3
1005
CF4
1005
CF1
1005
CEE
1071
       23
1070
     0
1070
     1
1071
        4
1040
402.04281700000001
1040
288.884615
1040
400.96589399999988
1040
288.884615
1040
400.18195800000001
1040
286.73076900000001
1040
401.25888099999997
1040
286.73076900000001
1071
        4
1005
CF7
1005
CEB
1005
CF5
1005
CED
1071
       23
1070
     0
1070
     1
1071
        4
1040
400.64281699999992
1040
288.884615
1040
399.56589400000001
1040
288.884615
1040
398.78195799999997
1040
286.73076900000001
1040
399.858881
1040
286.73076900000001
1071
        4
1005
CFD
1005
CEA
1005
CF2
1005
CEC
1071
       23
1070
     0
1070
     1
1071
        4
1040
406.615385
1040
290.5
1040
405.98823599999992
1040
288.7769229999999
1040
409.21900499999998
1040
288.7769229999999
1040
409.84615400000001
1040
290.5
1071
        4
1005
CE9
1005
CFF
1005
CE8
1005
D04
1071
       23
1070
     0
1070
     1
1071
        4
1040
405.75305500000002
1040
288.13076899999987
1040
405.28269399999999
1040
286.83846199999999
1040
408.51346299999989
1040
286.83846199999999
1040
408.98382400000003
1040
288.13076899999987
1071
        4
1005
CE4
1005
D00
1005
CE5
1005
D06
1071
        7
1070
     0
1070
     1
1071
        6
1040
409.45220799999993
1040
283.49999999999989
1040
412.0
1040
290.5
1040
410.92307699999992
1040
290.5
1040
409.15922099999989
1040
285.65384599999987
1040
404.85152900000003
1040
285.65384599999987
1040
404.06759299999999
1040
283.49999999999989
1071
        6
1005
D05
1005
D02
1005
CE7
1005
CF6
1005
CE6
1005
D03
1070
     0
1070
     1
1040
0.054099
1071
       15
1040
371.24837300000002
1040
289.88140899999991
1040
0.0
1040
373.90111799999988
1040
288.90763299999998
1040
0.0
1040
373.90111799999988
1040
288.90763299999998
1040
0.0
1040
373.90111799999988
1040
288.90763299999998
1040
0.0
1040
373.90111799999988
1040
288.90763299999998
1040
0.0
1040
380.34350000000001
1040
289.82731000000001
1040
0.0
1040
388.24759699999998
1040
289.66501399999993
1040
0.0
1040
386.51519200000001
1040
284.14694900000001
1040
0.0
1040
392.57860899999991
1040
284.25514599999991
1040
0.0
1040
400.53684500000003
1040
284.30924499999998
1040
0.0
1040
401.02408299999991
1040
287.55516599999999
1040
0.0
1040
399.72478000000001
1040
287.60926399999988
1040
0.0
1040
407.35818899999998
1040
289.98960599999992
1040
0.0
1040
407.141639
1040
287.50106699999992
1040
0.0
1040
407.19577600000002
1040
284.471541
1040
0.0
1002
}
  0
LINE
  5
74A8
  8
WAKU
 10
5.0
 20
505.0
 30
0.0
 11
755.0
 21
505.0
 31
0.0
  0
LINE
  5
8ADA
  8
DANMEN
  6
CONTINUOUS
 10
368.85694799999987
 20
174.705152
 30
0.0
 11
397.85694799999987
 21
174.705152
 31
0.0
  0
LINE
  5
8ADB
  8
DANMEN
  6
CONTINUOUS
 10
368.85694799999987
 20
274.70515199999988
 30
0.0
 11
397.85694799999987
 21
274.70515199999988
 31
0.0
  0
LINE
  5
8ADC
  8
DANMEN
  6
CONTINUOUS
 10
314.78805199999999
 20
264.93984799999993
 30
0.0
 11
314.78805199999999
 21
162.43984800000001
 31
0.0
  0
LINE
  5
8ADD
  8
DANMEN
  6
CONTINUOUS
 10
313.138058
 20
264.93984799999993
 30
0.0
 11
313.138058
 21
222.43984800000001
 31
0.0
  0
LINE
  5
8ADE
  8
DANMEN
  6
CONTINUOUS
 10
310.78805199999999
 20
264.93984799999993
 30
0.0
 11
310.78805199999999
 21
222.43984800000001
 31
0.0
  0
LINE
  5
8ADF
  8
DANMEN
  6
CONTINUOUS
 10
216.4380459999999
 20
264.93984799999993
 30
0.0
 11
216.4380459999999
 21
164.43984800000001
 31
0.0
  0
LINE
  5
8AE0
  8
DANMEN
  6
CONTINUOUS
 10
214.78805199999999
 20
264.93984799999993
 30
0.0
 11
214.78805199999999
 21
165.96968799999999
 31
0.0
  0
LINE
  5
8AE1
  8
DANMEN
  6
CONTINUOUS
 10
381.70694700000001
 20
273.05515200000002
 30
0.0
 11
381.70694700000001
 21
176.355152
 31
0.0
  0
LINE
  5
8AE2
  8
DANMEN
  6
CONTINUOUS
 10
228.28805199999991
 20
162.43984800000001
 30
0.0
 11
314.78805199999999
 21
162.43984800000001
 31
0.0
  0
LINE
  5
8AE3
  8
DANMEN
  6
CONTINUOUS
 10
261.9841679999999
 20
179.7790709999999
 30
0.0
 11
250.28805199999999
 21
177.43984800000001
 31
0.0
  0
LINE
  5
8AE4
  8
DANMEN
  6
CONTINUOUS
 10
265.10433799999993
 20
178.720429
 30
0.0
 11
250.54853199999999
 21
175.80926700000001
 31
0.0
  0
LINE
  5
8AE5
  8
DANMEN
  6
CONTINUOUS
 10
215.19027299999991
 20
162.43984800000001
 30
0.0
 11
222.28805199999991
 21
162.43984800000001
 31
0.0
  0
LINE
  5
8AE6
  8
DANMEN
  6
CONTINUOUS
 10
215.88805199999999
 20
164.43984800000001
 30
0.0
 11
221.78805199999999
 21
164.43984800000001
 31
0.0
  0
LINE
  5
8AE7
  8
DANMEN
  6
CONTINUOUS
 10
215.588052
 20
163.3398479999999
 30
0.0
 11
221.78805199999999
 21
163.3398479999999
 31
0.0
  0
LINE
  5
8AE9
  8
DANMEN
  6
CONTINUOUS
 10
212.9880519999999
 20
166.869685
 30
0.0
 11
212.9880519999999
 21
171.8398479999999
 31
0.0
  0
LINE
  5
8AEA
  8
DANMEN
  6
CONTINUOUS
 10
211.78805199999991
 20
166.54886499999989
 30
0.0
 11
211.78805199999991
 21
171.8398479999999
 31
0.0
  0
LINE
  5
8AEB
  8
DANMEN
  6
CONTINUOUS
 10
212.9880519999999
 20
166.869685
 30
0.0
 11
215.61165899999989
 21
165.55788200000001
 31
0.0
  0
LINE
  5
8AEC
  8
DANMEN
  6
CONTINUOUS
 10
212.06444499999989
 20
166.101651
 30
0.0
 11
214.78805199999999
 21
164.73984799999991
 31
0.0
  0
ARC
  5
8AEF
  8
DANMEN
  6
CONTINUOUS
 10
212.28805199999991
 20
166.54886499999989
 30
0.0
 40
0.5
 50
180.0
 51
243.43494899999999
  0
ARC
  5
8AF4
  8
DANMEN
  6
CONTINUOUS
 10
215.38805199999999
 20
165.110668
 30
0.0
 40
0.5
 50
0.0
 51
63.434949000000003
  0
LINE
  5
8AF5
  8
DANMEN
  6
CONTINUOUS
 10
215.88805199999999
 20
164.43984800000001
 30
0.0
 11
215.88805199999999
 21
165.110668
 31
0.0
  0
ARC
  5
8AF7
  8
DANMEN
  6
CONTINUOUS
 10
215.188052
 20
162.8398479999999
 30
0.0
 40
0.4
 50
180.0
 51
0.0
  0
LINE
  5
8AF8
  8
DANMEN
  6
CONTINUOUS
 10
215.588052
 20
162.8398479999999
 30
0.0
 11
215.588052
 21
163.3398479999999
 31
0.0
  0
LINE
  5
8AFA
  8
DANMEN
  6
CONTINUOUS
 10
214.78805199999999
 20
162.8398479999999
 30
0.0
 11
214.78805199999999
 21
164.73984799999991
 31
0.0
  0
ARC
  5
8AFB
  8
DANMEN
  6
CONTINUOUS
 10
212.38805199999999
 20
171.8398479999999
 30
0.0
 40
0.6
 50
0.0
 51
180.0
  0
LINE
  5
8AFE
  8
DANMEN
  6
CONTINUOUS
 10
231.78805199999999
 20
171.43984800000001
 30
0.0
 11
231.78805199999999
 21
176.93984800000001
 31
0.0
  0
LINE
  5
8AFF
  8
DANMEN
  6
CONTINUOUS
 10
233.48805200000001
 20
173.49378699999991
 30
0.0
 11
233.48805200000001
 21
174.73984799999999
 31
0.0
  0
LINE
  5
8B00
  8
DANMEN
  6
CONTINUOUS
 10
237.088052
 20
173.49378699999991
 30
0.0
 11
237.088052
 21
174.73984799999999
 31
0.0
  0
LINE
  5
8B01
  8
DANMEN
  6
CONTINUOUS
 10
239.89995200000001
 20
168.62006599999989
 30
0.0
 11
238.588052
 21
174.2295179999999
 31
0.0
  0
LINE
  5
8B02
  8
DANMEN
  6
CONTINUOUS
 10
228.28805199999991
 20
153.93984800000001
 30
0.0
 11
228.28805199999991
 21
163.0898479999999
 31
0.0
  0
LINE
  5
8B03
  8
DANMEN
  6
CONTINUOUS
 10
226.78805199999991
 20
153.93984800000001
 30
0.0
 11
226.78805199999991
 21
162.43984800000001
 31
0.0
  0
ARC
  5
8B05
  8
DANMEN
  6
CONTINUOUS
 10
227.78805199999999
 20
153.93984800000001
 30
0.0
 40
0.5
 50
270.0
 51
0.0
  0
ARC
  5
8B07
  8
DANMEN
  6
CONTINUOUS
 10
227.28805199999999
 20
153.93984800000001
 30
0.0
 40
0.5
 50
180.0
 51
270.0
  0
LINE
  5
8B08
  8
DANMEN
  6
CONTINUOUS
 10
227.28805199999999
 20
153.43984800000001
 30
0.0
 11
227.78805199999999
 21
153.43984800000001
 31
0.0
  0
LINE
  5
8B09
  8
DANMEN
  6
CONTINUOUS
 10
222.28805199999991
 20
162.43984800000001
 30
0.0
 11
226.78805199999991
 21
162.43984800000001
 31
0.0
  0
LINE
  5
8B0A
  8
DANMEN
  6
CONTINUOUS
 10
223.438052
 20
164.0898479999999
 30
0.0
 11
227.28805199999999
 21
164.0898479999999
 31
0.0
  0
LINE
  5
8B0B
  8
DANMEN
  6
CONTINUOUS
 10
222.78805199999991
 20
171.43984800000001
 30
0.0
 11
231.78805199999999
 21
171.43984800000001
 31
0.0
  0
LINE
  5
8B0C
  8
DANMEN
  6
CONTINUOUS
 10
223.438052
 20
169.78984800000001
 30
0.0
 11
231.938052
 21
169.78984800000001
 31
0.0
  0
LINE
  5
8B0D
  8
DANMEN
  6
CONTINUOUS
 10
223.438052
 20
164.0898479999999
 30
0.0
 11
223.438052
 21
169.78984800000001
 31
0.0
  0
LINE
  5
8B0E
  8
DANMEN
  6
CONTINUOUS
 10
221.78805199999999
 20
164.43984800000001
 30
0.0
 11
221.78805199999999
 21
170.43984800000001
 31
0.0
  0
ARC
  5
8B12
  8
DANMEN
  6
CONTINUOUS
 10
222.28805199999991
 20
162.93984800000001
 30
0.0
 40
0.5
 50
180.0
 51
270.0
  0
LINE
  5
8B13
  8
DANMEN
  6
CONTINUOUS
 10
221.78805199999999
 20
162.93984800000001
 30
0.0
 11
221.78805199999999
 21
163.3398479999999
 31
0.0
  0
ARC
  5
8B15
  8
DANMEN
  6
CONTINUOUS
 10
222.78805199999991
 20
170.43984800000001
 30
0.0
 40
1.0
 50
90.0
 51
180.0
  0
ARC
  5
8B19
  8
DANMEN
  6
CONTINUOUS
 10
227.28805199999999
 20
163.0898479999999
 30
0.0
 40
1.0
 50
0.0
 51
90.0
  0
ARC
  5
8B1C
  8
DANMEN
  6
CONTINUOUS
 10
233.88805199999999
 20
172.13984799999989
 30
0.0
 40
0.3
 50
270.0
 51
0.0
  0
LINE
  5
8B1D
  8
DANMEN
  6
CONTINUOUS
 10
233.43805199999991
 20
171.8398479999999
 30
0.0
 11
233.88805199999999
 21
171.8398479999999
 31
0.0
  0
LINE
  5
8B1E
  8
DANMEN
  6
CONTINUOUS
 10
234.188052
 20
172.13984799999989
 30
0.0
 11
234.188052
 21
172.402916
 31
0.0
  0
ARC
  5
8B1F
  8
DANMEN
  6
CONTINUOUS
 10
234.48805299999989
 20
173.49378699999991
 30
0.0
 40
1.0
 50
180.0
 51
245.3756819999999
  0
ARC
  5
8B20
  8
DANMEN
  6
CONTINUOUS
 10
233.98805200000001
 20
172.402916
 30
0.0
 40
0.2
 50
0.0
 51
65.375681999999983
  0
LINE
  5
8B21
  8
DANMEN
  6
CONTINUOUS
 10
233.43805199999991
 20
171.28984799999989
 30
0.0
 11
233.43805199999991
 21
171.8398479999999
 31
0.0
  0
ARC
  5
8B23
  8
DANMEN
  6
CONTINUOUS
 10
231.938052
 20
171.28984799999989
 30
0.0
 40
1.5
 50
270.0
 51
0.0
  0
LINE
  5
8B25
  8
DANMEN
  6
CONTINUOUS
 10
243.0508189999999
 20
167.66244499999999
 30
0.0
 11
240.1296439999999
 21
166.97926100000001
 31
0.0
  0
ARC
  5
8B26
  8
DANMEN
  6
CONTINUOUS
 10
242.78893099999999
 20
168.78222799999989
 30
0.0
 40
0.5
 50
13.163344
 51
103.163344
  0
ARC
  5
8B27
  8
DANMEN
  6
CONTINUOUS
 10
239.78805199999999
 20
168.43984800000001
 30
0.0
 40
1.5
 50
193.16334399999991
 51
283.163344
  0
ARC
  5
8B2A
  8
DANMEN
  6
CONTINUOUS
 10
236.688052
 20
172.13984799999989
 30
0.0
 40
0.3
 50
180.0
 51
270.0
  0
LINE
  5
8B2B
  8
DANMEN
  6
CONTINUOUS
 10
236.688052
 20
171.8398479999999
 30
0.0
 11
237.45240699999999
 21
171.8398479999999
 31
0.0
  0
ARC
  5
8B2C
  8
DANMEN
  6
CONTINUOUS
 10
236.588052
 20
172.402916
 30
0.0
 40
0.2
 50
114.6243179999999
 51
180.0
  0
ARC
  5
8B2D
  8
DANMEN
  6
CONTINUOUS
 10
236.088052
 20
173.49378699999991
 30
0.0
 40
1.0
 50
294.62431800000002
 51
0.0
  0
LINE
  5
8B2E
  8
DANMEN
  6
CONTINUOUS
 10
236.38805199999999
 20
172.13984799999989
 30
0.0
 11
236.38805199999999
 21
172.402916
 31
0.0
  0
LINE
  5
8B2F
  8
DANMEN
  6
CONTINUOUS
 10
238.32746499999999
 20
168.09825599999991
 30
0.0
 11
237.45240699999999
 21
171.8398479999999
 31
0.0
  0
LINE
  5
8B31
  8
DANMEN
  6
CONTINUOUS
 10
242.67506700000001
 20
169.269091
 30
0.0
 11
239.89995200000001
 21
168.62006599999989
 31
0.0
  0
ARC
  5
8B32
  8
DANMEN
  6
CONTINUOUS
 10
242.93695399999999
 20
168.14930699999991
 30
0.0
 40
0.5
 50
283.163344
 51
13.163344
  0
LINE
  5
8B34
  8
DANMEN
  6
CONTINUOUS
 10
243.4238169999999
 20
168.263171
 30
0.0
 11
243.27579399999999
 21
168.8960919999999
 31
0.0
  0
ARC
  5
8B36
  8
DANMEN
  6
CONTINUOUS
 10
233.78805199999999
 20
188.43984800000001
 30
0.0
 40
3.0
 50
66.421821999999992
 51
113.57817799999999
  0
LINE
  5
8B37
  8
DANMEN
  6
CONTINUOUS
 10
234.48805299999989
 20
175.73984799999991
 30
0.0
 11
236.088052
 21
175.73984799999991
 31
0.0
  0
LINE
  5
8B38
  8
DANMEN
  6
CONTINUOUS
 10
232.28805199999999
 20
177.43984800000001
 30
0.0
 11
232.28805199999999
 21
190.73113599999999
 31
0.0
  0
ARC
  5
8B3B
  8
DANMEN
  6
CONTINUOUS
 10
232.28805199999999
 20
176.93984800000001
 30
0.0
 40
0.5
 50
90.0
 51
180.0
  0
ARC
  5
8B3C
  8
DANMEN
  6
CONTINUOUS
 10
234.48805299999989
 20
174.73984799999999
 30
0.0
 40
1.0
 50
90.0
 51
180.0
  0
ARC
  5
8B3D
  8
DANMEN
  6
CONTINUOUS
 10
232.78805199999991
 20
190.73113599999999
 30
0.0
 40
0.5
 50
113.57817799999999
 51
180.0
  0
LINE
  5
8B43
  8
DANMEN
  6
CONTINUOUS
 10
235.28805199999991
 20
177.43984800000001
 30
0.0
 11
235.28805199999991
 21
190.73113599999999
 31
0.0
  0
LINE
  5
8B44
  8
DANMEN
  6
CONTINUOUS
 10
235.28805199999991
 20
177.43984800000001
 30
0.0
 11
250.28805199999999
 21
177.43984800000001
 31
0.0
  0
LINE
  5
8B45
  8
DANMEN
  6
CONTINUOUS
 10
239.58805199999989
 20
175.78984800000001
 30
0.0
 11
250.35241500000001
 21
175.78984800000001
 31
0.0
  0
ARC
  5
8B46
  8
DANMEN
  6
CONTINUOUS
 10
239.58805199999989
 20
174.78984800000001
 30
0.0
 40
1.0
 50
90.0
 51
180.0
  0
ARC
  5
8B4B
  8
DANMEN
  6
CONTINUOUS
 10
236.088052
 20
174.73984799999999
 30
0.0
 40
1.0
 50
0.0
 51
90.0
  0
LINE
  5
8B4C
  8
DANMEN
  6
CONTINUOUS
 10
238.588052
 20
174.2295179999999
 30
0.0
 11
238.588052
 21
174.78984800000001
 31
0.0
  0
ARC
  5
8B4F
  8
DANMEN
  6
CONTINUOUS
 10
250.35241500000001
 20
176.78984800000001
 30
0.0
 40
1.0
 50
270.0
 51
281.309932
  0
ARC
  5
8B51
  8
DANMEN
  6
CONTINUOUS
 10
234.78805199999991
 20
190.73113599999999
 30
0.0
 40
0.5
 50
0.0
 51
66.421821999999992
  0
LINE
  5
8B55
  8
DANMEN
  6
CONTINUOUS
 10
272.78805199999988
 20
194.43984800000001
 30
0.0
 11
272.78805199999988
 21
204.33984799999999
 31
0.0
  0
LINE
  5
8B56
  8
DANMEN
  6
CONTINUOUS
 10
313.13805200000002
 20
190.08984799999999
 30
0.0
 11
313.13805200000002
 21
208.76835199999999
 31
0.0
  0
LINE
  5
8B57
  8
DANMEN
  6
CONTINUOUS
 10
314.78805199999999
 20
182.93984800000001
 30
0.0
 11
314.78805199999999
 21
221.93984800000001
 31
0.0
  0
LINE
  5
8B58
  8
DANMEN
  6
CONTINUOUS
 10
274.43805200000003
 20
194.30190899999991
 30
0.0
 11
274.43805200000003
 21
203.83984799999999
 31
0.0
  0
LINE
  5
8B59
  8
DANMEN
  6
CONTINUOUS
 10
313.13805200000002
 20
188.43984800000001
 30
0.0
 11
272.5768819999999
 21
188.43984800000001
 31
0.0
  0
LINE
  5
8B5A
  8
DANMEN
  6
CONTINUOUS
 10
313.13805200000002
 20
190.08984799999999
 30
0.0
 11
273.42972400000002
 21
190.08984799999999
 31
0.0
  0
LINE
  5
8B5B
  8
DANMEN
  6
CONTINUOUS
 10
264.78805199999999
 20
185.43984800000001
 30
0.0
 11
268.13817999999998
 21
185.43984800000001
 31
0.0
  0
ARC
  5
8B5C
  8
DANMEN
  6
CONTINUOUS
 10
266.98805199999993
 20
182.73984799999999
 30
0.0
 40
1.0
 50
0.0
 51
90.0
  0
ARC
  5
8B5D
  8
DANMEN
  6
CONTINUOUS
 10
264.78805199999999
 20
183.43984800000001
 30
0.0
 40
2.0
 50
90.0
 51
180.0
  0
ARC
  5
8B5E
  8
DANMEN
  6
CONTINUOUS
 10
266.121757
 20
179.48984799999999
 30
0.0
 40
0.75
 50
270.0
 51
90.0
  0
ARC
  5
8B5F
  8
DANMEN
  6
CONTINUOUS
 10
262.80045499999989
 20
177.23984799999991
 30
0.0
 40
1.0
 50
90.0
 51
101.3099319999999
  0
ARC
  5
8B61
  8
DANMEN
  6
CONTINUOUS
 10
265.30045499999989
 20
177.73984799999999
 30
0.0
 40
1.0
 50
90.0
 51
101.3099319999999
  0
LINE
  5
8B62
  8
DANMEN
  6
CONTINUOUS
 10
266.121757
 20
178.73984799999999
 30
0.0
 11
265.30045499999989
 21
178.73984799999999
 31
0.0
  0
ARC
  5
8B65
  8
DANMEN
  6
CONTINUOUS
 10
261.78805199999988
 20
180.7596519999999
 30
0.0
 40
1.0
 50
281.309932
 51
0.0
  0
LINE
  5
8B66
  8
DANMEN
  6
CONTINUOUS
 10
262.78805199999999
 20
180.7596519999999
 30
0.0
 11
262.78805199999999
 21
183.43984800000001
 31
0.0
  0
ARC
  5
8B68
  8
DANMEN
  6
CONTINUOUS
 10
265.48805299999992
 20
181.23984799999991
 30
0.0
 40
1.0
 50
180.0
 51
270.0
  0
ARC
  5
8B69
  8
DANMEN
  6
CONTINUOUS
 10
265.48805299999992
 20
182.73984799999999
 30
0.0
 40
1.0
 50
90.0
 51
180.0
  0
LINE
  5
8B6A
  8
DANMEN
  6
CONTINUOUS
 10
266.121757
 20
180.23984799999991
 30
0.0
 11
265.48805299999992
 21
180.23984799999991
 31
0.0
  0
LINE
  5
8B6B
  8
DANMEN
  6
CONTINUOUS
 10
266.98805199999993
 20
183.73984799999999
 30
0.0
 11
265.48805299999992
 21
183.73984799999999
 31
0.0
  0
LINE
  5
8B6C
  8
DANMEN
  6
CONTINUOUS
 10
264.48805299999998
 20
182.73984799999999
 30
0.0
 11
264.48805299999998
 21
181.23984799999991
 31
0.0
  0
LINE
  5
8B70
  8
DANMEN
  6
CONTINUOUS
 10
271.66307199999989
 20
187.84598600000001
 30
0.0
 11
269.57423999999992
 21
183.14611799999989
 31
0.0
  0
ARC
  5
8B72
  8
DANMEN
  6
CONTINUOUS
 10
270.48805299999998
 20
182.73998
 30
0.0
 40
1.0
 50
156.03751099999999
 51
180.0
  0
ARC
  5
8B73
  8
DANMEN
  6
CONTINUOUS
 10
268.73805199999998
 20
182.106143
 30
0.0
 40
0.75
 50
180.0
 51
0.0
  0
LINE
  5
8B74
  8
DANMEN
  6
CONTINUOUS
 10
269.48805199999993
 20
182.73998
 30
0.0
 11
269.48805199999993
 21
182.106143
 31
0.0
  0
LINE
  5
8B75
  8
DANMEN
  6
CONTINUOUS
 10
267.98805299999992
 20
182.73984799999999
 30
0.0
 11
267.98805299999992
 21
182.106143
 31
0.0
  0
LINE
  5
8B76
  8
DANMEN
  6
CONTINUOUS
 10
272.78805199999988
 20
194.43984800000001
 30
0.0
 11
269.05198999999988
 21
186.03371000000001
 31
0.0
  0
LINE
  5
8B77
  8
DANMEN
  6
CONTINUOUS
 10
274.35186399999998
 20
193.89576999999991
 30
0.0
 11
272.97281800000002
 21
190.7929169999999
 31
0.0
  0
ARC
  5
8B79
  8
DANMEN
  6
CONTINUOUS
 10
268.13817999999998
 20
186.43984800000001
 30
0.0
 40
1.0
 50
270.0
 51
336.03751099999999
  0
ARC
  5
8B7B
  8
DANMEN
  6
CONTINUOUS
 10
272.5768819999999
 20
187.43984800000001
 30
0.0
 40
1.0
 50
90.0
 51
156.03751099999999
  0
ARC
  5
8B7D
  8
DANMEN
  6
CONTINUOUS
 10
273.42972400000002
 20
190.5898479999999
 30
0.0
 40
0.5
 50
156.03751099999999
 51
270.0
  0
ARC
  5
8B80
  8
DANMEN
  6
CONTINUOUS
 10
273.43805200000003
 20
194.30190899999991
 30
0.0
 40
1.0
 50
336.03751099999999
 51
0.0
  0
LINE
  5
8B82
  8
DANMEN
  6
CONTINUOUS
 10
313.13805200000002
 20
185.748481
 30
0.0
 11
310.03053899999998
 21
185.02171799999991
 31
0.0
  0
LINE
  5
8B83
  8
DANMEN
  6
CONTINUOUS
 10
313.07418799999988
 20
184.03902099999991
 30
0.0
 11
310.40629000000001
 21
183.41507200000001
 31
0.0
  0
LINE
  5
8B84
  8
DANMEN
  6
CONTINUOUS
 10
309.805564
 20
183.788071
 30
0.0
 11
309.65754199999992
 21
184.4209919999999
 31
0.0
  0
ARC
  5
8B85
  8
DANMEN
  6
CONTINUOUS
 10
310.29242599999992
 20
183.90193500000001
 30
0.0
 40
0.5
 50
193.16334399999991
 51
283.163344
  0
ARC
  5
8B87
  8
DANMEN
  6
CONTINUOUS
 10
310.1444029999999
 20
184.53485599999999
 30
0.0
 40
0.5
 50
103.163344
 51
193.16334399999991
  0
LINE
  5
8B8B
  8
DANMEN
  6
CONTINUOUS
 10
313.68805200000003
 20
182.43984800000001
 30
0.0
 11
314.28805199999988
 21
182.43984800000001
 31
0.0
  0
ARC
  5
8B8C
  8
DANMEN
  6
CONTINUOUS
 10
314.28805199999988
 20
182.93984800000001
 30
0.0
 40
0.5
 50
270.0
 51
0.0
  0
LINE
  5
8B8F
  8
DANMEN
  6
CONTINUOUS
 10
313.68805200000003
 20
182.43984800000001
 30
0.0
 11
313.68805200000003
 21
183.55215899999999
 31
0.0
  0
ARC
  5
8B90
  8
DANMEN
  6
CONTINUOUS
 10
313.18805200000003
 20
183.55215899999999
 30
0.0
 40
0.5
 50
0.0
 51
103.163344
  0
LINE
  5
8B95
  8
DANMEN
  6
CONTINUOUS
 10
313.13805200000002
 20
185.748481
 30
0.0
 11
313.13805200000002
 21
188.43984800000001
 31
0.0
  0
LINE
  5
8B98
  8
DANMEN
  6
CONTINUOUS
 10
300.78805199999999
 20
208.4398479999999
 30
0.0
 11
283.28805199999988
 21
208.4398479999999
 31
0.0
  0
LINE
  5
8B99
  8
DANMEN
  6
CONTINUOUS
 10
297.48805299999992
 20
206.78984800000001
 30
0.0
 11
283.088052
 21
206.78984800000001
 31
0.0
  0
LINE
  5
8B9A
  8
DANMEN
  6
CONTINUOUS
 10
280.28805199999999
 20
208.4398479999999
 30
0.0
 11
280.28805199999999
 21
221.73113599999999
 31
0.0
  0
LINE
  5
8B9B
  8
DANMEN
  6
CONTINUOUS
 10
283.28805199999988
 20
208.4398479999999
 30
0.0
 11
283.28805199999988
 21
221.73113599999999
 31
0.0
  0
LINE
  5
8B9C
  8
DANMEN
  6
CONTINUOUS
 10
266.28805199999988
 20
204.33984799999999
 30
0.0
 11
272.78805199999988
 21
204.33984799999999
 31
0.0
  0
LINE
  5
8B9D
  8
DANMEN
  6
CONTINUOUS
 10
263.28805199999999
 20
205.43984800000001
 30
0.0
 11
272.78805199999988
 21
205.43984800000001
 31
0.0
  0
LINE
  5
8B9E
  8
DANMEN
  6
CONTINUOUS
 10
265.28805199999999
 20
198.43984800000001
 30
0.0
 11
265.28805199999999
 21
204.43984800000001
 31
0.0
  0
LINE
  5
8B9F
  8
DANMEN
  6
CONTINUOUS
 10
266.28805199999988
 20
197.93984800000001
 30
0.0
 11
266.28805199999988
 21
204.33984799999999
 31
0.0
  0
LINE
  5
8BA0
  8
DANMEN
  6
CONTINUOUS
 10
264.78805199999999
 20
202.93984800000001
 30
0.0
 11
263.98805299999992
 21
202.139848
 31
0.0
  0
LINE
  5
8BA1
  8
DANMEN
  6
CONTINUOUS
 10
261.98805299999992
 20
204.639848
 30
0.0
 11
261.98805299999992
 21
202.53984800000001
 31
0.0
  0
ARC
  5
8BA2
  8
DANMEN
  6
CONTINUOUS
 10
271.820063
 20
200.71811799999989
 30
0.0
 40
12.0
 50
156.82894400000001
 51
179.71685299999999
  0
ARC
  5
8BA3
  8
DANMEN
  6
CONTINUOUS
 10
271.80901599999999
 20
200.2635029999999
 30
0.0
 40
11.5
 50
157.63213799999991
 51
177.49921999999989
  0
LINE
  5
8BA4
  8
DANMEN
  6
CONTINUOUS
 10
263.28805199999999
 20
199.639848
 30
0.0
 11
263.588052
 21
199.639848
 31
0.0
  0
LINE
  5
8BA5
  8
DANMEN
  6
CONTINUOUS
 10
263.28805199999999
 20
197.4398479999999
 30
0.0
 11
265.78805199999988
 21
197.4398479999999
 31
0.0
  0
LINE
  5
8BA6
  8
DANMEN
  6
CONTINUOUS
 10
262.78805199999999
 20
199.639847
 30
0.0
 11
263.78805199999988
 21
199.639847
 31
0.0
  0
ARC
  5
8BA8
  8
DANMEN
  6
CONTINUOUS
 10
263.28805199999999
 20
199.13984799999989
 30
0.0
 40
0.5
 50
90.0
 51
180.0
  0
ARC
  5
8BAA
  8
DANMEN
  6
CONTINUOUS
 10
263.28805199999999
 20
197.93984800000001
 30
0.0
 40
0.5
 50
180.0
 51
270.0
  0
LINE
  5
8BAB
  8
DANMEN
  6
CONTINUOUS
 10
262.78805199999999
 20
197.93984800000001
 30
0.0
 11
262.78805199999999
 21
199.13984799999989
 31
0.0
  0
LINE
  5
8BAC
  8
DANMEN
  6
CONTINUOUS
 10
262.78805199999999
 20
199.639847
 30
0.0
 11
262.78805199999999
 21
198.639847
 31
0.0
  0
LINE
  5
8BAD
  8
DANMEN
  6
CONTINUOUS
 10
262.3880509999999
 20
198.639847
 30
0.0
 11
262.78805199999999
 21
198.639847
 31
0.0
  0
LINE
  5
8BB0
  8
DANMEN
  6
CONTINUOUS
 10
262.18805200000003
 20
200.139848
 30
0.0
 11
262.18805200000003
 21
198.83984699999991
 31
0.0
  0
ARC
  5
8BB2
  8
DANMEN
  6
CONTINUOUS
 10
262.3880509999999
 20
198.83984699999991
 30
0.0
 40
0.2
 50
180.0000189999999
 51
270.000001
  0
LINE
  5
8BB3
  8
DANMEN
  6
CONTINUOUS
 10
262.38805200000002
 20
202.139848
 30
0.0
 11
262.78805199999999
 21
202.139848
 31
0.0
  0
LINE
  5
8BB5
  8
DANMEN
  6
CONTINUOUS
 10
262.78805199999999
 20
202.139848
 30
0.0
 11
262.78805199999999
 21
200.43984800000001
 31
0.0
  0
ARC
  5
8BB8
  8
DANMEN
  6
CONTINUOUS
 10
262.38805200000002
 20
202.53984800000001
 30
0.0
 40
0.4
 50
180.0000189999999
 51
270.000001
  0
ARC
  5
8BB9
  8
DANMEN
  6
CONTINUOUS
 10
260.07020699999998
 20
200.7761899999999
 30
0.0
 40
0.25
 50
179.71685299999999
 51
357.49921999999998
  0
ARC
  5
8BBB
  8
DANMEN
  6
CONTINUOUS
 10
260.73805199999993
 20
201.68984800000001
 30
0.0
 40
0.15
 50
27.871157
 51
207.87117900000001
  0
LINE
  5
8BC1
  8
DANMEN
  6
CONTINUOUS
 10
261.56877099999991
 20
200.43984800000001
 30
0.0
 11
262.78805199999999
 21
200.43984800000001
 31
0.0
  0
LINE
  5
8BC2
  8
DANMEN
  6
CONTINUOUS
 10
261.38805200000002
 20
200.139848
 30
0.0
 11
262.18805200000003
 21
200.139848
 31
0.0
  0
LINE
  5
8BC4
  8
DANMEN
  6
CONTINUOUS
 10
260.60545200000001
 20
201.6197249999999
 30
0.0
 11
261.38805200000002
 21
200.139848
 31
0.0
  0
LINE
  5
8BC5
  8
DANMEN
  6
CONTINUOUS
 10
260.87065200000001
 20
201.7599699999999
 30
0.0
 11
261.56876999999997
 21
200.43984800000001
 31
0.0
  0
LINE
  5
8BCC
  8
DANMEN
  6
CONTINUOUS
 10
263.588052
 20
198.43984800000001
 30
0.0
 11
265.28805199999999
 21
198.43984800000001
 31
0.0
  0
LINE
  5
8BCE
  8
DANMEN
  6
CONTINUOUS
 10
263.588052
 20
198.43984800000001
 30
0.0
 11
263.588052
 21
199.639848
 31
0.0
  0
ARC
  5
8BD0
  8
DANMEN
  6
CONTINUOUS
 10
265.78805199999988
 20
197.93984800000001
 30
0.0
 40
0.5
 50
270.0
 51
0.0
  0
LINE
  5
8BD1
  8
DANMEN
  6
CONTINUOUS
 10
263.98805299999992
 20
198.43984800000001
 30
0.0
 11
264.58805199999989
 21
198.43984800000001
 31
0.0
  0
ARC
  5
8BD3
  8
DANMEN
  6
CONTINUOUS
 10
264.58805199999989
 20
198.639847
 30
0.0
 40
0.2
 50
270.0000179999999
 51
0.0
  0
ARC
  5
8BD5
  8
DANMEN
  6
CONTINUOUS
 10
263.98805299999992
 20
198.639847
 30
0.0
 40
0.2
 50
180.0000189999999
 51
270.000001
  0
LINE
  5
8BD7
  8
DANMEN
  6
CONTINUOUS
 10
264.78805199999999
 20
199.639847
 30
0.0
 11
264.78805199999999
 21
198.639847
 31
0.0
  0
LINE
  5
8BD9
  8
DANMEN
  6
CONTINUOUS
 10
263.98805299999992
 20
200.43984800000001
 30
0.0
 11
264.78805199999999
 21
199.639848
 31
0.0
  0
LINE
  5
8BDA
  8
DANMEN
  6
CONTINUOUS
 10
263.78805199999988
 20
199.639847
 30
0.0
 11
263.78805199999988
 21
198.639847
 31
0.0
  0
LINE
  5
8BDD
  8
DANMEN
  6
CONTINUOUS
 10
263.98805299999992
 20
202.139848
 30
0.0
 11
263.98805299999992
 21
200.43984800000001
 31
0.0
  0
LINE
  5
8BE1
  8
DANMEN
  6
CONTINUOUS
 10
263.28805199999999
 20
203.23984799999991
 30
0.0
 11
263.588052
 21
203.23984799999991
 31
0.0
  0
LINE
  5
8BE2
  8
DANMEN
  6
CONTINUOUS
 10
262.78805199999999
 20
202.93984800000001
 30
0.0
 11
263.78805199999988
 21
202.93984800000001
 31
0.0
  0
ARC
  5
8BE4
  8
DANMEN
  6
CONTINUOUS
 10
263.28805199999999
 20
203.73984799999991
 30
0.0
 40
0.5
 50
180.0
 51
270.0
  0
LINE
  5
8BE5
  8
DANMEN
  6
CONTINUOUS
 10
262.78805199999999
 20
203.73984799999991
 30
0.0
 11
262.78805199999999
 21
204.93984800000001
 31
0.0
  0
ARC
  5
8BE7
  8
DANMEN
  6
CONTINUOUS
 10
263.28805199999999
 20
204.93984800000001
 30
0.0
 40
0.5
 50
90.0
 51
180.0
  0
LINE
  5
8BE8
  8
DANMEN
  6
CONTINUOUS
 10
260.78805199999999
 20
205.43984800000001
 30
0.0
 11
262.78805199999999
 21
205.43984800000001
 31
0.0
  0
LINE
  5
8BE9
  8
DANMEN
  6
CONTINUOUS
 10
262.78805199999999
 20
205.43984800000001
 30
0.0
 11
262.78805199999999
 21
202.93984800000001
 31
0.0
  0
LINE
  5
8BEE
  8
DANMEN
  6
CONTINUOUS
 10
261.17428099999989
 20
204.639848
 30
0.0
 11
261.98805299999992
 21
204.639848
 31
0.0
  0
LINE
  5
8BF3
  8
DANMEN
  6
CONTINUOUS
 10
263.588052
 20
204.43984800000001
 30
0.0
 11
265.28805199999999
 21
204.43984800000001
 31
0.0
  0
LINE
  5
8BF5
  8
DANMEN
  6
CONTINUOUS
 10
263.588052
 20
203.23984799999991
 30
0.0
 11
263.588052
 21
204.43984800000001
 31
0.0
  0
LINE
  5
8BF7
  8
DANMEN
  6
CONTINUOUS
 10
264.78805199999999
 20
203.93984800000001
 30
0.0
 11
264.78805199999999
 21
202.93984800000001
 31
0.0
  0
LINE
  5
8BF8
  8
DANMEN
  6
CONTINUOUS
 10
263.98805299999992
 20
204.13984699999989
 30
0.0
 11
264.58805199999989
 21
204.13984699999989
 31
0.0
  0
LINE
  5
8BF9
  8
DANMEN
  6
CONTINUOUS
 10
263.78805199999988
 20
203.93984800000001
 30
0.0
 11
263.78805199999988
 21
202.93984800000001
 31
0.0
  0
ARC
  5
8BFB
  8
DANMEN
  6
CONTINUOUS
 10
264.58805199999989
 20
203.93984800000001
 30
0.0
 40
0.2
 50
0.0
 51
89.999981999999974
  0
ARC
  5
8BFD
  8
DANMEN
  6
CONTINUOUS
 10
263.98805299999992
 20
203.93984800000001
 30
0.0
 40
0.2
 50
89.999981999999974
 51
180.0000189999999
  0
ARC
  5
8C00
  8
DANMEN
  6
CONTINUOUS
 10
273.78805199999999
 20
207.43984800000001
 30
0.0
 40
1.0
 50
90.0
 51
180.0
  0
LINE
  5
8C01
  8
DANMEN
  6
CONTINUOUS
 10
273.78805199999999
 20
208.4398479999999
 30
0.0
 11
280.28805199999999
 21
208.4398479999999
 31
0.0
  0
ARC
  5
8C02
  8
DANMEN
  6
CONTINUOUS
 10
277.48805199999993
 20
204.40954199999999
 30
0.0
 40
2.0
 50
193.172146
 51
231.706523
  0
LINE
  5
8C06
  8
DANMEN
  6
CONTINUOUS
 10
272.78805199999988
 20
205.43984800000001
 30
0.0
 11
272.78805199999988
 21
207.43984800000001
 31
0.0
  0
LINE
  5
8C07
  8
DANMEN
  6
CONTINUOUS
 10
274.93805200000003
 20
204.33984799999999
 30
0.0
 11
275.05382700000001
 21
204.33984799999999
 31
0.0
  0
ARC
  5
8C08
  8
DANMEN
  6
CONTINUOUS
 10
274.93805200000003
 20
203.83984799999999
 30
0.0
 40
0.5
 50
90.0
 51
180.0
  0
ARC
  5
8C0B
  8
DANMEN
  6
CONTINUOUS
 10
275.05382700000001
 20
203.83984799999999
 30
0.0
 40
0.5
 50
13.172146
 51
90.0
  0
ARC
  5
8C0D
  8
DANMEN
  6
CONTINUOUS
 10
279.588052
 20
205.73984799999991
 30
0.0
 40
1.0
 50
0.0
 51
90.0
  0
ARC
  5
8C0E
  8
DANMEN
  6
CONTINUOUS
 10
277.48805199999993
 20
203.402916
 30
0.0
 40
0.2
 50
0.0
 51
65.375681999999983
  0
ARC
  5
8C0F
  8
DANMEN
  6
CONTINUOUS
 10
277.98805299999992
 20
204.493787
 30
0.0
 40
1.0
 50
180.0
 51
245.3756819999999
  0
LINE
  5
8C10
  8
DANMEN
  6
CONTINUOUS
 10
277.68805200000003
 20
203.139848
 30
0.0
 11
277.68805200000003
 21
203.402916
 31
0.0
  0
ARC
  5
8C11
  8
DANMEN
  6
CONTINUOUS
 10
277.98805299999992
 20
205.73984799999991
 30
0.0
 40
1.0
 50
90.0
 51
180.0
  0
LINE
  5
8C12
  8
DANMEN
  6
CONTINUOUS
 10
276.98805299999998
 20
204.493787
 30
0.0
 11
276.98805299999998
 21
205.73984799999991
 31
0.0
  0
LINE
  5
8C13
  8
DANMEN
  6
CONTINUOUS
 10
277.98805299999992
 20
206.73984799999999
 30
0.0
 11
279.588052
 21
206.73984799999999
 31
0.0
  0
LINE
  5
8C15
  8
DANMEN
  6
CONTINUOUS
 10
276.248673
 20
202.8398479999999
 30
0.0
 11
277.3880529999999
 21
202.8398479999999
 31
0.0
  0
ARC
  5
8C16
  8
DANMEN
  6
CONTINUOUS
 10
277.3880529999999
 20
203.139848
 30
0.0
 40
0.3
 50
270.0
 51
0.0
  0
ARC
  5
8C19
  8
DANMEN
  6
CONTINUOUS
 10
283.088052
 20
205.78984799999989
 30
0.0
 40
1.0
 50
90.0
 51
180.0
  0
LINE
  5
8C1B
  8
DANMEN
  6
CONTINUOUS
 10
279.88805200000002
 20
203.139848
 30
0.0
 11
279.88805200000002
 21
203.402916
 31
0.0
  0
ARC
  5
8C1C
  8
DANMEN
  6
CONTINUOUS
 10
279.588052
 20
204.493787
 30
0.0
 40
1.0
 50
294.62431800000002
 51
0.0
  0
ARC
  5
8C1D
  8
DANMEN
  6
CONTINUOUS
 10
280.088052
 20
203.402916
 30
0.0
 40
0.2
 50
114.6243179999999
 51
180.0
  0
ARC
  5
8C1E
  8
DANMEN
  6
CONTINUOUS
 10
280.088052
 20
204.40954199999999
 30
0.0
 40
2.0
 50
308.293477
 51
0.0
  0
LINE
  5
8C1F
  8
DANMEN
  6
CONTINUOUS
 10
282.088052
 20
204.40954199999999
 30
0.0
 11
282.088052
 21
205.78984799999989
 31
0.0
  0
LINE
  5
8C20
  8
DANMEN
  6
CONTINUOUS
 10
280.588052
 20
204.493787
 30
0.0
 11
280.588052
 21
205.73984799999991
 31
0.0
  0
LINE
  5
8C22
  8
DANMEN
  6
CONTINUOUS
 10
280.18805200000003
 20
202.8398479999999
 30
0.0
 11
281.32743199999999
 21
202.8398479999999
 31
0.0
  0
ARC
  5
8C23
  8
DANMEN
  6
CONTINUOUS
 10
280.18805200000003
 20
203.139848
 30
0.0
 40
0.3
 50
180.0
 51
270.0
  0
ARC
  5
8C26
  8
DANMEN
  6
CONTINUOUS
 10
282.78805199999988
 20
221.73113599999999
 30
0.0
 40
0.5
 50
0.0
 51
66.421821999999992
  0
ARC
  5
8C28
  8
DANMEN
  6
CONTINUOUS
 10
280.78805199999988
 20
221.73113599999999
 30
0.0
 40
0.5
 50
113.57817799999999
 51
180.0
  0
ARC
  5
8C29
  8
DANMEN
  6
CONTINUOUS
 10
281.78805199999999
 20
219.43984800000001
 30
0.0
 40
3.0
 50
66.421821999999992
 51
113.57817799999999
  0
LINE
  5
8C2D
  8
DANMEN
  6
CONTINUOUS
 10
313.13805200000002
 20
215.43984800000001
 30
0.0
 11
313.13805200000002
 21
221.43984800000001
 31
0.0
  0
LINE
  5
8C2E
  8
DANMEN
  6
CONTINUOUS
 10
312.78805199999999
 20
220.93984800000001
 30
0.0
 11
312.78805199999999
 21
219.93984800000001
 31
0.0
  0
LINE
  5
8C2F
  8
DANMEN
  6
CONTINUOUS
 10
311.78805199999988
 20
220.93984800000001
 30
0.0
 11
311.78805199999988
 21
219.93984800000001
 31
0.0
  0
LINE
  5
8C30
  8
DANMEN
  6
CONTINUOUS
 10
310.78805199999999
 20
222.43984800000001
 30
0.0
 11
310.78805199999999
 21
219.93984800000001
 31
0.0
  0
LINE
  5
8C31
  8
DANMEN
  6
CONTINUOUS
 10
309.98805299999998
 20
221.639848
 30
0.0
 11
309.98805299999998
 21
219.53984800000001
 31
0.0
  0
ARC
  5
8C32
  8
DANMEN
  6
CONTINUOUS
 10
319.820063
 20
217.718118
 30
0.0
 40
12.0
 50
156.82894400000001
 51
179.71685299999999
  0
ARC
  5
8C33
  8
DANMEN
  6
CONTINUOUS
 10
319.80901599999999
 20
217.2635029999999
 30
0.0
 40
11.5
 50
157.63213799999991
 51
177.49921999999989
  0
LINE
  5
8C34
  8
DANMEN
  6
CONTINUOUS
 10
299.24867299999988
 20
202.8398479999999
 30
0.0
 11
300.38805200000002
 21
202.8398479999999
 31
0.0
  0
ARC
  5
8C35
  8
DANMEN
  6
CONTINUOUS
 10
300.98805299999992
 20
205.73984799999991
 30
0.0
 40
1.0
 50
90.0
 51
180.0
  0
ARC
  5
8C36
  8
DANMEN
  6
CONTINUOUS
 10
300.98805299999992
 20
204.493787
 30
0.0
 40
1.0
 50
180.0
 51
245.3756819999999
  0
LINE
  5
8C37
  8
DANMEN
  6
CONTINUOUS
 10
299.98805299999998
 20
204.493787
 30
0.0
 11
299.98805299999998
 21
205.73984799999991
 31
0.0
  0
LINE
  5
8C38
  8
DANMEN
  6
CONTINUOUS
 10
298.48805199999993
 20
204.40954199999999
 30
0.0
 11
298.48805199999993
 21
205.78984799999989
 31
0.0
  0
ARC
  5
8C39
  8
DANMEN
  6
CONTINUOUS
 10
300.48805199999993
 20
204.40954199999999
 30
0.0
 40
2.0
 50
180.0
 51
231.706523
  0
ARC
  5
8C3A
  8
DANMEN
  6
CONTINUOUS
 10
297.48805299999992
 20
205.78984799999989
 30
0.0
 40
1.0
 50
0.0
 51
90.0
  0
LINE
  5
8C3C
  8
DANMEN
  6
CONTINUOUS
 10
300.78805199999999
 20
208.4398479999999
 30
0.0
 11
313.13805200000002
 21
210.4398479999999
 31
0.0
  0
LINE
  5
8C3D
  8
DANMEN
  6
CONTINUOUS
 10
305.92819100000003
 20
207.60076299999989
 30
0.0
 11
313.13805200000002
 21
208.76835199999999
 31
0.0
  0
LINE
  5
8C3E
  8
DANMEN
  6
CONTINUOUS
 10
303.18805200000003
 20
202.8398479999999
 30
0.0
 11
304.32743199999999
 21
202.8398479999999
 31
0.0
  0
ARC
  5
8C3F
  8
DANMEN
  6
CONTINUOUS
 10
300.38805200000002
 20
203.139848
 30
0.0
 40
0.3
 50
270.0
 51
0.0
  0
ARC
  5
8C40
  8
DANMEN
  6
CONTINUOUS
 10
303.18805200000003
 20
203.139848
 30
0.0
 40
0.3
 50
180.0
 51
270.0
  0
LINE
  5
8C43
  8
DANMEN
  6
CONTINUOUS
 10
300.98805299999992
 20
206.73984799999999
 30
0.0
 11
302.588052
 21
206.73984799999999
 31
0.0
  0
ARC
  5
8C44
  8
DANMEN
  6
CONTINUOUS
 10
302.588052
 20
205.73984799999991
 30
0.0
 40
1.0
 50
0.0
 51
90.0
  0
LINE
  5
8C45
  8
DANMEN
  6
CONTINUOUS
 10
300.68805200000003
 20
203.139848
 30
0.0
 11
300.68805200000003
 21
203.402916
 31
0.0
  0
ARC
  5
8C46
  8
DANMEN
  6
CONTINUOUS
 10
300.48805199999993
 20
203.402916
 30
0.0
 40
0.2
 50
0.0
 51
65.375681999999983
  0
LINE
  5
8C47
  8
DANMEN
  6
CONTINUOUS
 10
303.588052
 20
204.493787
 30
0.0
 11
303.588052
 21
205.73984799999991
 31
0.0
  0
ARC
  5
8C48
  8
DANMEN
  6
CONTINUOUS
 10
303.088052
 20
203.402916
 30
0.0
 40
0.2
 50
114.6243179999999
 51
180.0
  0
ARC
  5
8C49
  8
DANMEN
  6
CONTINUOUS
 10
302.588052
 20
204.493787
 30
0.0
 40
1.0
 50
294.62431800000002
 51
0.0
  0
LINE
  5
8C4A
  8
DANMEN
  6
CONTINUOUS
 10
302.88805200000002
 20
203.139848
 30
0.0
 11
302.88805200000002
 21
203.402916
 31
0.0
  0
LINE
  5
8C4C
  8
DANMEN
  6
CONTINUOUS
 10
305.088052
 20
204.40954199999999
 30
0.0
 11
305.088052
 21
206.61362399999999
 31
0.0
  0
ARC
  5
8C4D
  8
DANMEN
  6
CONTINUOUS
 10
303.088052
 20
204.40954199999999
 30
0.0
 40
2.0
 50
308.293477
 51
0.0
  0
ARC
  5
8C4E
  8
DANMEN
  6
CONTINUOUS
 10
306.08805199999989
 20
206.61362399999999
 30
0.0
 40
1.0
 50
99.198808999999997
 51
180.0
  0
ARC
  5
8C50
  8
DANMEN
  6
CONTINUOUS
 10
308.07020699999998
 20
217.7761899999999
 30
0.0
 40
0.25
 50
179.71685299999999
 51
357.49921999999998
  0
LINE
  5
8C54
  8
DANMEN
  6
CONTINUOUS
 10
313.13805200000002
 20
210.4398479999999
 30
0.0
 11
313.13805200000002
 21
214.4398479999999
 31
0.0
  0
LINE
  5
8C57
  8
DANMEN
  6
CONTINUOUS
 10
311.588052
 20
215.43984800000001
 30
0.0
 11
313.13805200000002
 21
215.43984800000001
 31
0.0
  0
LINE
  5
8C58
  8
DANMEN
  6
CONTINUOUS
 10
311.28805199999999
 20
214.4398479999999
 30
0.0
 11
313.13805200000002
 21
214.4398479999999
 31
0.0
  0
LINE
  5
8C59
  8
DANMEN
  6
CONTINUOUS
 10
311.98805299999992
 20
215.43984800000001
 30
0.0
 11
312.58805199999989
 21
215.43984800000001
 31
0.0
  0
LINE
  5
8C5A
  8
DANMEN
  6
CONTINUOUS
 10
312.78805199999999
 20
219.93984800000001
 30
0.0
 11
311.98805299999992
 21
219.139848
 31
0.0
  0
LINE
  5
8C5B
  8
DANMEN
  6
CONTINUOUS
 10
311.98805299999992
 20
217.43984800000001
 30
0.0
 11
312.78805199999999
 21
216.639848
 31
0.0
  0
ARC
  5
8C5F
  8
DANMEN
  6
CONTINUOUS
 10
311.28805199999999
 20
216.13984799999989
 30
0.0
 40
0.5
 50
90.0
 51
180.0
  0
LINE
  5
8C60
  8
DANMEN
  6
CONTINUOUS
 10
311.28805199999999
 20
216.639848
 30
0.0
 11
311.588052
 21
216.639848
 31
0.0
  0
LINE
  5
8C61
  8
DANMEN
  6
CONTINUOUS
 10
311.588052
 20
215.43984800000001
 30
0.0
 11
311.588052
 21
216.639848
 31
0.0
  0
ARC
  5
8C63
  8
DANMEN
  6
CONTINUOUS
 10
311.28805199999999
 20
214.93984800000001
 30
0.0
 40
0.5
 50
180.0
 51
270.0
  0
LINE
  5
8C64
  8
DANMEN
  6
CONTINUOUS
 10
310.78805199999999
 20
214.93984800000001
 30
0.0
 11
310.78805199999999
 21
216.13984799999989
 31
0.0
  0
LINE
  5
8C65
  8
DANMEN
  6
CONTINUOUS
 10
310.78805199999999
 20
216.639847
 30
0.0
 11
310.78805199999999
 21
215.639847
 31
0.0
  0
ARC
  5
8C67
  8
DANMEN
  6
CONTINUOUS
 10
311.98805299999992
 20
215.639847
 30
0.0
 40
0.2
 50
180.0000189999999
 51
270.000001
  0
LINE
  5
8C68
  8
DANMEN
  6
CONTINUOUS
 10
310.78805199999999
 20
219.93984800000001
 30
0.0
 11
311.78805199999988
 21
219.93984800000001
 31
0.0
  0
LINE
  5
8C69
  8
DANMEN
  6
CONTINUOUS
 10
311.78805199999988
 20
216.639847
 30
0.0
 11
311.78805199999988
 21
215.639847
 31
0.0
  0
LINE
  5
8C6B
  8
DANMEN
  6
CONTINUOUS
 10
310.3880509999999
 20
215.639847
 30
0.0
 11
310.78805199999999
 21
215.639847
 31
0.0
  0
LINE
  5
8C6D
  8
DANMEN
  6
CONTINUOUS
 10
310.78805199999999
 20
216.639847
 30
0.0
 11
311.78805199999988
 21
216.639847
 31
0.0
  0
LINE
  5
8C70
  8
DANMEN
  6
CONTINUOUS
 10
310.18805200000003
 20
217.139848
 30
0.0
 11
310.18805200000003
 21
215.83984699999999
 31
0.0
  0
ARC
  5
8C72
  8
DANMEN
  6
CONTINUOUS
 10
310.3880509999999
 20
215.83984699999999
 30
0.0
 40
0.2
 50
180.0000189999999
 51
270.000001
  0
LINE
  5
8C73
  8
DANMEN
  6
CONTINUOUS
 10
310.38805200000002
 20
219.139848
 30
0.0
 11
310.78805199999999
 21
219.139848
 31
0.0
  0
LINE
  5
8C77
  8
DANMEN
  6
CONTINUOUS
 10
311.98805299999992
 20
219.139848
 30
0.0
 11
311.98805299999992
 21
217.43984800000001
 31
0.0
  0
LINE
  5
8C7A
  8
DANMEN
  6
CONTINUOUS
 10
310.78805199999999
 20
219.139848
 30
0.0
 11
310.78805199999999
 21
217.43984800000001
 31
0.0
  0
ARC
  5
8C7D
  8
DANMEN
  6
CONTINUOUS
 10
310.38805200000002
 20
219.53984800000001
 30
0.0
 40
0.4
 50
180.0000189999999
 51
270.000001
  0
ARC
  5
8C7E
  8
DANMEN
  6
CONTINUOUS
 10
308.73805199999993
 20
218.6898479999999
 30
0.0
 40
0.15
 50
27.871157
 51
207.87117900000001
  0
LINE
  5
8C82
  8
DANMEN
  6
CONTINUOUS
 10
309.56877099999991
 20
217.43984800000001
 30
0.0
 11
310.78805199999999
 21
217.43984800000001
 31
0.0
  0
LINE
  5
8C83
  8
DANMEN
  6
CONTINUOUS
 10
309.38805200000002
 20
217.139848
 30
0.0
 11
310.18805200000003
 21
217.139848
 31
0.0
  0
LINE
  5
8C85
  8
DANMEN
  6
CONTINUOUS
 10
308.60545200000001
 20
218.6197249999999
 30
0.0
 11
309.38805200000002
 21
217.139848
 31
0.0
  0
LINE
  5
8C86
  8
DANMEN
  6
CONTINUOUS
 10
308.87065200000001
 20
218.75997000000001
 30
0.0
 11
309.56876999999997
 21
217.43984800000001
 31
0.0
  0
ARC
  5
8C8E
  8
DANMEN
  6
CONTINUOUS
 10
312.58805199999989
 20
215.639847
 30
0.0
 40
0.2
 50
270.0000179999999
 51
0.0
  0
LINE
  5
8C90
  8
DANMEN
  6
CONTINUOUS
 10
312.78805199999999
 20
216.639847
 30
0.0
 11
312.78805199999999
 21
215.639847
 31
0.0
  0
LINE
  5
8C94
  8
DANMEN
  6
CONTINUOUS
 10
310.78805199999999
 20
222.43984800000001
 30
0.0
 11
314.78805199999999
 21
222.43984800000001
 31
0.0
  0
LINE
  5
8C95
  8
DANMEN
  6
CONTINUOUS
 10
311.588052
 20
221.43984800000001
 30
0.0
 11
313.13805200000002
 21
221.43984800000001
 31
0.0
  0
LINE
  5
8C96
  8
DANMEN
  6
CONTINUOUS
 10
311.28805199999999
 20
222.43984800000001
 30
0.0
 11
314.28805199999988
 21
222.43984800000001
 31
0.0
  0
LINE
  5
8C97
  8
DANMEN
  6
CONTINUOUS
 10
311.98805299999992
 20
221.139847
 30
0.0
 11
312.58805199999989
 21
221.139847
 31
0.0
  0
ARC
  5
8C9B
  8
DANMEN
  6
CONTINUOUS
 10
311.28805199999999
 20
220.73984799999999
 30
0.0
 40
0.5
 50
180.0
 51
270.0
  0
LINE
  5
8C9C
  8
DANMEN
  6
CONTINUOUS
 10
311.588052
 20
220.23984799999991
 30
0.0
 11
311.588052
 21
221.43984800000001
 31
0.0
  0
LINE
  5
8C9D
  8
DANMEN
  6
CONTINUOUS
 10
310.78805199999999
 20
220.73984799999999
 30
0.0
 11
310.78805199999999
 21
221.93984800000001
 31
0.0
  0
LINE
  5
8C9E
  8
DANMEN
  6
CONTINUOUS
 10
311.28805199999999
 20
220.23984799999991
 30
0.0
 11
311.588052
 21
220.23984799999991
 31
0.0
  0
ARC
  5
8CA0
  8
DANMEN
  6
CONTINUOUS
 10
311.28805199999999
 20
221.93984800000001
 30
0.0
 40
0.5
 50
90.0
 51
180.0
  0
LINE
  5
8CA1
  8
DANMEN
  6
CONTINUOUS
 10
308.78805199999999
 20
222.43984800000001
 30
0.0
 11
310.78805199999999
 21
222.43984800000001
 31
0.0
  0
ARC
  5
8CA3
  8
DANMEN
  6
CONTINUOUS
 10
311.98805299999992
 20
220.93984800000001
 30
0.0
 40
0.2
 50
89.999981999999974
 51
180.0000189999999
  0
LINE
  5
8CA7
  8
DANMEN
  6
CONTINUOUS
 10
309.17428099999989
 20
221.639848
 30
0.0
 11
309.98805299999998
 21
221.639848
 31
0.0
  0
ARC
  5
8CAB
  8
DANMEN
  6
CONTINUOUS
 10
314.28805199999988
 20
221.93984800000001
 30
0.0
 40
0.5
 50
0.0
 51
90.0
  0
ARC
  5
8CAF
  8
DANMEN
  6
CONTINUOUS
 10
312.58805199999989
 20
220.93984800000001
 30
0.0
 40
0.2
 50
0.0
 51
89.999981999999974
  0
LINE
  5
8CB0
  8
DANMEN
  6
CONTINUOUS
 10
370.00694700000003
 20
176.355152
 30
0.0
 11
381.70694700000001
 21
176.355152
 31
0.0
  0
LINE
  5
8CB1
  8
DANMEN
  6
CONTINUOUS
 10
370.00694700000003
 20
180.205152
 30
0.0
 11
370.00694700000003
 21
176.355152
 31
0.0
  0
LINE
  5
8CB2
  8
DANMEN
  6
CONTINUOUS
 10
368.35694799999999
 20
180.205152
 30
0.0
 11
368.35694799999999
 21
175.205152
 31
0.0
  0
ARC
  5
8CB4
  8
DANMEN
  6
CONTINUOUS
 10
368.85694799999987
 20
175.205152
 30
0.0
 40
0.5
 50
180.0
 51
270.0
  0
ARC
  5
8CB6
  8
DANMEN
  6
CONTINUOUS
 10
369.50694700000003
 20
180.205152
 30
0.0
 40
0.5
 50
0.0
 51
90.0
  0
ARC
  5
8CB8
  8
DANMEN
  6
CONTINUOUS
 10
368.85694799999987
 20
180.205152
 30
0.0
 40
0.5
 50
90.0
 51
180.0
  0
LINE
  5
8CB9
  8
DANMEN
  6
CONTINUOUS
 10
368.85694799999987
 20
180.70515199999991
 30
0.0
 11
369.50694700000003
 21
180.70515199999991
 31
0.0
  0
LINE
  5
8CBC
  8
DANMEN
  6
CONTINUOUS
 10
214.78805199999999
 20
345.43984799999998
 30
0.0
 11
314.78805199999999
 21
345.43984799999998
 31
0.0
  0
LINE
  5
8CBD
  8
DANMEN
  6
CONTINUOUS
 10
241.28805199999991
 20
337.38984799999992
 30
0.0
 11
264.28805199999988
 21
337.38984799999992
 31
0.0
  0
LINE
  5
8CBE
  8
DANMEN
  6
CONTINUOUS
 10
249.78805199999991
 20
340.38984799999992
 30
0.0
 11
257.78805199999988
 21
340.38984799999992
 31
0.0
  0
LINE
  5
8CBF
  8
DANMEN
  6
CONTINUOUS
 10
214.78805199999999
 20
345.43984799999998
 30
0.0
 11
214.78805199999999
 21
267.93984799999993
 31
0.0
  0
LINE
  5
8CC0
  8
DANMEN
  6
CONTINUOUS
 10
231.43805199999991
 20
335.08984800000002
 30
0.0
 11
231.43805199999991
 21
343.78984800000001
 31
0.0
  0
LINE
  5
8CC1
  8
DANMEN
  6
CONTINUOUS
 10
229.78805199999999
 20
335.08984800000002
 30
0.0
 11
229.78805199999999
 21
343.78984800000001
 31
0.0
  0
LINE
  5
8CC2
  8
DANMEN
  6
CONTINUOUS
 10
241.28805199999991
 20
334.23984799999988
 30
0.0
 11
241.28805199999991
 21
337.38984799999992
 31
0.0
  0
LINE
  5
8CC3
  8
DANMEN
  6
CONTINUOUS
 10
234.48805299999989
 20
337.47015399999992
 30
0.0
 11
234.48805299999989
 21
336.08984800000002
 31
0.0
  0
ARC
  5
8CC4
  8
DANMEN
  6
CONTINUOUS
 10
238.588052
 20
336.13984799999992
 30
0.0
 40
1.0
 50
270.0
 51
0.0
  0
ARC
  5
8CC5
  8
DANMEN
  6
CONTINUOUS
 10
236.98805299999989
 20
336.13984799999992
 30
0.0
 40
1.0
 50
180.0
 51
270.0
  0
LINE
  5
8CC6
  8
DANMEN
  6
CONTINUOUS
 10
216.43805199999991
 20
335.08984800000002
 30
0.0
 11
216.43805199999991
 21
343.78984800000001
 31
0.0
  0
LINE
  5
8CC7
  8
DANMEN
  6
CONTINUOUS
 10
214.78805199999999
 20
310.93984799999993
 30
0.0
 11
214.78805199999999
 21
344.93984799999993
 31
0.0
  0
LINE
  5
8CC8
  8
DANMEN
  6
CONTINUOUS
 10
216.4380459999999
 20
310.93984799999993
 30
0.0
 11
216.4380459999999
 21
267.93984799999993
 31
0.0
  0
LINE
  5
8CC9
  8
DANMEN
  6
CONTINUOUS
 10
216.43805199999991
 20
335.08984800000002
 30
0.0
 11
229.78805199999999
 21
335.08984800000002
 31
0.0
  0
LINE
  5
8CCA
  8
DANMEN
  6
CONTINUOUS
 10
216.43805199999991
 20
333.43984799999993
 30
0.0
 11
232.53805199999991
 21
333.43984799999993
 31
0.0
  0
LINE
  5
8CCB
  8
DANMEN
  6
CONTINUOUS
 10
216.43805199999991
 20
310.93984799999993
 30
0.0
 11
216.43805199999991
 21
333.43984799999993
 31
0.0
  0
ARC
  5
8CCE
  8
DANMEN
  6
CONTINUOUS
 10
215.938052
 20
310.93984799999993
 30
0.0
 40
0.5
 50
270.0
 51
0.0
  0
ARC
  5
8CD0
  8
DANMEN
  6
CONTINUOUS
 10
215.28805199999999
 20
310.93984799999993
 30
0.0
 40
0.5
 50
180.0
 51
270.0
  0
LINE
  5
8CD1
  8
DANMEN
  6
CONTINUOUS
 10
215.28805199999999
 20
310.43984799999993
 30
0.0
 11
215.938052
 21
310.43984799999993
 31
0.0
  0
LINE
  5
8CD4
  8
DANMEN
  6
CONTINUOUS
 10
232.53805199999991
 20
312.50140099999999
 30
0.0
 11
232.53805199999991
 21
333.43984799999993
 31
0.0
  0
LINE
  5
8CD5
  8
DANMEN
  6
CONTINUOUS
 10
235.03805199999991
 20
312.50140099999999
 30
0.0
 11
235.03805199999991
 21
333.43984799999993
 31
0.0
  0
ARC
  5
8CD6
  8
DANMEN
  6
CONTINUOUS
 10
234.14766399999999
 20
310.93984799999993
 30
0.0
 40
0.5
 50
270.0
 51
345.96375699999987
  0
ARC
  5
8CD9
  8
DANMEN
  6
CONTINUOUS
 10
233.42843999999999
 20
310.93984799999993
 30
0.0
 40
0.5
 50
194.03624300000001
 51
270.0
  0
ARC
  5
8CDB
  8
DANMEN
  6
CONTINUOUS
 10
233.03805199999991
 20
312.50140099999999
 30
0.0
 40
0.5
 50
180.0
 51
194.03624300000001
  0
LINE
  5
8CDC
  8
DANMEN
  6
CONTINUOUS
 10
232.55298099999999
 20
312.380133
 30
0.0
 11
232.94336899999999
 21
310.81858
 31
0.0
  0
LINE
  5
8CDD
  8
DANMEN
  6
CONTINUOUS
 10
233.42843999999999
 20
310.43984799999993
 30
0.0
 11
234.14766399999999
 21
310.43984799999993
 31
0.0
  0
ARC
  5
8CDF
  8
DANMEN
  6
CONTINUOUS
 10
234.53805199999991
 20
312.50140099999999
 30
0.0
 40
0.5
 50
345.96375699999987
 51
0.0
  0
LINE
  5
8CE0
  8
DANMEN
  6
CONTINUOUS
 10
234.63273599999999
 20
310.81858
 30
0.0
 11
235.02312299999991
 21
312.380133
 31
0.0
  0
ARC
  5
8CE1
  8
DANMEN
  6
CONTINUOUS
 10
233.48805200000001
 20
336.08984800000002
 30
0.0
 40
1.0
 50
270.0
 51
0.0
  0
LINE
  5
8CE4
  8
DANMEN
  6
CONTINUOUS
 10
231.43805199999991
 20
335.08984800000002
 30
0.0
 11
233.48805200000001
 21
335.08984800000002
 31
0.0
  0
ARC
  5
8CE7
  8
DANMEN
  6
CONTINUOUS
 10
242.28805199999999
 20
333.93984799999993
 30
0.0
 40
0.5
 50
270.0
 51
0.0
  0
LINE
  5
8CE8
  8
DANMEN
  6
CONTINUOUS
 10
235.03805199999991
 20
333.43984799999993
 30
0.0
 11
242.28805199999999
 21
333.43984799999993
 31
0.0
  0
LINE
  5
8CE9
  8
DANMEN
  6
CONTINUOUS
 10
238.588052
 20
335.13984799999992
 30
0.0
 11
236.98805299999989
 21
335.13984799999992
 31
0.0
  0
LINE
  5
8CEE
  8
DANMEN
  6
CONTINUOUS
 10
241.28805199999991
 20
334.23984799999988
 30
0.0
 11
242.78805199999991
 21
334.23984799999988
 31
0.0
  0
LINE
  5
8CEF
  8
DANMEN
  6
CONTINUOUS
 10
242.78805199999991
 20
333.93984799999993
 30
0.0
 11
242.78805199999991
 21
334.23984799999988
 31
0.0
  0
LINE
  5
8CF0
  8
DANMEN
  6
CONTINUOUS
 10
215.28805199999999
 20
345.43984799999998
 30
0.0
 11
235.28805199999991
 21
345.43984799999998
 31
0.0
  0
LINE
  5
8CF1
  8
DANMEN
  6
CONTINUOUS
 10
216.43805199999991
 20
343.78984800000001
 30
0.0
 11
229.78805199999999
 21
343.78984800000001
 31
0.0
  0
ARC
  5
8CF3
  8
DANMEN
  6
CONTINUOUS
 10
215.28805199999999
 20
344.93984799999993
 30
0.0
 40
0.5
 50
90.0
 51
180.0
  0
LINE
  5
8CF5
  8
DANMEN
  6
CONTINUOUS
 10
231.43805199999991
 20
343.78984800000001
 30
0.0
 11
235.28805199999991
 21
343.78984800000001
 31
0.0
  0
ARC
  5
8CF6
  8
DANMEN
  6
CONTINUOUS
 10
236.48805299999989
 20
337.47015399999992
 30
0.0
 40
2.0
 50
128.29347699999991
 51
180.0
  0
LINE
  5
8CF9
  8
DANMEN
  6
CONTINUOUS
 10
248.78805199999999
 20
339.03984799999989
 30
0.0
 11
239.18805199999991
 21
339.03984799999989
 31
0.0
  0
LINE
  5
8CFA
  8
DANMEN
  6
CONTINUOUS
 10
236.688052
 20
338.73984799999988
 30
0.0
 11
236.688052
 21
338.47677999999991
 31
0.0
  0
ARC
  5
8CFB
  8
DANMEN
  6
CONTINUOUS
 10
236.98805299999989
 20
337.38590899999991
 30
0.0
 40
1.0
 50
114.6243179999999
 51
180.0
  0
ARC
  5
8CFC
  8
DANMEN
  6
CONTINUOUS
 10
236.48805299999989
 20
338.47677999999991
 30
0.0
 40
0.2
 50
294.62431800000002
 51
0.0
  0
LINE
  5
8CFD
  8
DANMEN
  6
CONTINUOUS
 10
235.98805200000001
 20
337.38590899999991
 30
0.0
 11
235.98805200000001
 21
336.13984799999992
 31
0.0
  0
LINE
  5
8D00
  8
DANMEN
  6
CONTINUOUS
 10
236.38805199999999
 20
339.03984799999989
 30
0.0
 11
235.24867299999991
 21
339.03984799999989
 31
0.0
  0
ARC
  5
8D01
  8
DANMEN
  6
CONTINUOUS
 10
236.38805199999999
 20
338.73984799999988
 30
0.0
 40
0.3
 50
0.0
 51
90.0
  0
ARC
  5
8D03
  8
DANMEN
  6
CONTINUOUS
 10
239.088052
 20
338.47677999999991
 30
0.0
 40
0.2
 50
180.0
 51
245.3756819999999
  0
ARC
  5
8D04
  8
DANMEN
  6
CONTINUOUS
 10
238.588052
 20
337.38590899999991
 30
0.0
 40
1.0
 50
0.0
 51
65.375681999999983
  0
LINE
  5
8D05
  8
DANMEN
  6
CONTINUOUS
 10
238.88805199999999
 20
338.73984799999988
 30
0.0
 11
238.88805199999999
 21
338.47677999999991
 31
0.0
  0
LINE
  5
8D06
  8
DANMEN
  6
CONTINUOUS
 10
239.58805199999989
 20
337.38590899999991
 30
0.0
 11
239.58805199999989
 21
336.13984799999992
 31
0.0
  0
ARC
  5
8D07
  8
DANMEN
  6
CONTINUOUS
 10
239.18805199999991
 20
338.73984799999988
 30
0.0
 40
0.3
 50
90.0
 51
180.0
  0
LINE
  5
8D08
  8
DANMEN
  6
CONTINUOUS
 10
235.78805199999999
 20
344.28984800000001
 30
0.0
 11
235.78805199999999
 21
344.93984799999993
 31
0.0
  0
ARC
  5
8D09
  8
DANMEN
  6
CONTINUOUS
 10
235.28805199999991
 20
344.93984799999993
 30
0.0
 40
0.5
 50
0.0
 51
90.0
  0
ARC
  5
8D0B
  8
DANMEN
  6
CONTINUOUS
 10
235.28805199999991
 20
344.28984800000001
 30
0.0
 40
0.5
 50
270.0
 51
0.0
  0
LINE
  5
8D0D
  8
DANMEN
  6
CONTINUOUS
 10
249.78805199999991
 20
340.38984799999992
 30
0.0
 11
249.78805199999991
 21
340.03984800000001
 31
0.0
  0
ARC
  5
8D0E
  8
DANMEN
  6
CONTINUOUS
 10
248.78805199999999
 20
340.03984800000001
 30
0.0
 40
1.0
 50
270.0
 51
0.0
  0
LINE
  5
8D12
  8
DANMEN
  6
CONTINUOUS
 10
314.78805199999999
 20
345.43984799999998
 30
0.0
 11
314.78805199999999
 21
267.93984799999993
 31
0.0
  0
LINE
  5
8D13
  8
DANMEN
  6
CONTINUOUS
 10
281.15878099999998
 20
335.08984800000002
 30
0.0
 11
283.65878099999998
 21
338.08984800000002
 31
0.0
  0
LINE
  5
8D14
  8
DANMEN
  6
CONTINUOUS
 10
283.03805199999988
 20
333.43984799999993
 30
0.0
 11
285.53805199999999
 21
336.43984799999993
 31
0.0
  0
LINE
  5
8D15
  8
DANMEN
  6
CONTINUOUS
 10
313.13805200000002
 20
310.93984799999993
 30
0.0
 11
313.13805200000002
 21
336.43984799999993
 31
0.0
  0
LINE
  5
8D16
  8
DANMEN
  6
CONTINUOUS
 10
264.28805199999988
 20
337.38984799999992
 30
0.0
 11
264.28805199999988
 21
334.23984799999988
 31
0.0
  0
ARC
  5
8D17
  8
DANMEN
  6
CONTINUOUS
 10
268.58805199999989
 20
336.13984799999992
 30
0.0
 40
1.0
 50
270.0
 51
0.0
  0
ARC
  5
8D18
  8
DANMEN
  6
CONTINUOUS
 10
266.98805199999993
 20
336.13984799999992
 30
0.0
 40
1.0
 50
180.0
 51
270.0
  0
LINE
  5
8D19
  8
DANMEN
  6
CONTINUOUS
 10
271.08805199999989
 20
337.47015399999992
 30
0.0
 11
271.08805199999989
 21
336.08984800000002
 31
0.0
  0
LINE
  5
8D1A
  8
DANMEN
  6
CONTINUOUS
 10
314.78805199999999
 20
310.93984799999993
 30
0.0
 11
314.78805199999999
 21
344.93984799999993
 31
0.0
  0
LINE
  5
8D1B
  8
DANMEN
  6
CONTINUOUS
 10
310.78805199999999
 20
310.43984799999993
 30
0.0
 11
310.78805199999999
 21
267.93984799999993
 31
0.0
  0
LINE
  5
8D1C
  8
DANMEN
  6
CONTINUOUS
 10
313.138058
 20
310.43984799999993
 30
0.0
 11
313.138058
 21
267.93984799999993
 31
0.0
  0
LINE
  5
8D1D
  8
DANMEN
  6
CONTINUOUS
 10
283.03805199999988
 20
312.50140099999999
 30
0.0
 11
283.03805199999988
 21
333.43984799999993
 31
0.0
  0
LINE
  5
8D1E
  8
DANMEN
  6
CONTINUOUS
 10
280.53805199999988
 20
312.50140099999999
 30
0.0
 11
280.53805199999988
 21
333.43984799999993
 31
0.0
  0
LINE
  5
8D1F
  8
DANMEN
  6
CONTINUOUS
 10
282.14766400000002
 20
310.43984799999993
 30
0.0
 11
281.42843999999991
 21
310.43984799999993
 31
0.0
  0
LINE
  5
8D20
  8
DANMEN
  6
CONTINUOUS
 10
283.02312299999988
 20
312.380133
 30
0.0
 11
282.63273599999991
 21
310.81858
 31
0.0
  0
LINE
  5
8D21
  8
DANMEN
  6
CONTINUOUS
 10
280.94336900000002
 20
310.81858
 30
0.0
 11
280.55298099999987
 21
312.380133
 31
0.0
  0
ARC
  5
8D22
  8
DANMEN
  6
CONTINUOUS
 10
282.53805199999988
 20
312.50140099999999
 30
0.0
 40
0.5
 50
345.96375699999987
 51
0.0
  0
ARC
  5
8D24
  8
DANMEN
  6
CONTINUOUS
 10
282.14766400000002
 20
310.93984799999993
 30
0.0
 40
0.5
 50
270.0
 51
345.96375699999987
  0
ARC
  5
8D26
  8
DANMEN
  6
CONTINUOUS
 10
281.42843999999991
 20
310.93984799999993
 30
0.0
 40
0.5
 50
194.03624300000001
 51
270.0
  0
ARC
  5
8D28
  8
DANMEN
  6
CONTINUOUS
 10
281.03805199999988
 20
312.50140099999999
 30
0.0
 40
0.5
 50
180.0
 51
194.03624300000001
  0
LINE
  5
8D2A
  8
DANMEN
  6
CONTINUOUS
 10
268.58805199999989
 20
335.13984799999992
 30
0.0
 11
266.98805199999993
 21
335.13984799999992
 31
0.0
  0
LINE
  5
8D2B
  8
DANMEN
  6
CONTINUOUS
 10
263.28805199999999
 20
333.43984799999993
 30
0.0
 11
280.53805199999988
 21
333.43984799999993
 31
0.0
  0
LINE
  5
8D2C
  8
DANMEN
  6
CONTINUOUS
 10
262.78805199999999
 20
334.23984799999988
 30
0.0
 11
264.28805199999988
 21
334.23984799999988
 31
0.0
  0
ARC
  5
8D2E
  8
DANMEN
  6
CONTINUOUS
 10
263.28805199999999
 20
333.93984799999993
 30
0.0
 40
0.5
 50
180.0
 51
270.0
  0
LINE
  5
8D30
  8
DANMEN
  6
CONTINUOUS
 10
262.78805199999999
 20
334.23984799999988
 30
0.0
 11
262.78805199999999
 21
333.93984799999993
 31
0.0
  0
LINE
  5
8D32
  8
DANMEN
  6
CONTINUOUS
 10
272.088052
 20
335.08984800000002
 30
0.0
 11
281.15878099999998
 21
335.08984800000002
 31
0.0
  0
ARC
  5
8D33
  8
DANMEN
  6
CONTINUOUS
 10
272.088052
 20
336.08984800000002
 30
0.0
 40
1.0
 50
180.0
 51
270.0
  0
LINE
  5
8D38
  8
DANMEN
  6
CONTINUOUS
 10
310.78805199999999
 20
310.43984799999993
 30
0.0
 11
314.78805199999999
 21
310.43984799999993
 31
0.0
  0
ARC
  5
8D3A
  8
DANMEN
  6
CONTINUOUS
 10
313.63805200000002
 20
310.93984799999993
 30
0.0
 40
0.5
 50
180.0
 51
270.0
  0
ARC
  5
8D3C
  8
DANMEN
  6
CONTINUOUS
 10
314.28805199999988
 20
310.93984799999993
 30
0.0
 40
0.5
 50
270.0
 51
0.0
  0
LINE
  5
8D3D
  8
DANMEN
  6
CONTINUOUS
 10
313.63805200000002
 20
310.43984799999993
 30
0.0
 11
314.28805199999988
 21
310.43984799999993
 31
0.0
  0
LINE
  5
8D3E
  8
DANMEN
  6
CONTINUOUS
 10
370.00694700000003
 20
273.05515200000002
 30
0.0
 11
381.70694700000001
 21
273.05515200000002
 31
0.0
  0
LINE
  5
8D3F
  8
DANMEN
  6
CONTINUOUS
 10
370.00694700000003
 20
273.05515200000002
 30
0.0
 11
370.00694700000003
 21
269.205152
 31
0.0
  0
LINE
  5
8D40
  8
DANMEN
  6
CONTINUOUS
 10
368.35694799999999
 20
274.20515199999988
 30
0.0
 11
368.35694799999999
 21
269.205152
 31
0.0
  0
ARC
  5
8D41
  8
DANMEN
  6
CONTINUOUS
 10
369.50694700000003
 20
269.205152
 30
0.0
 40
0.5
 50
270.0
 51
0.0
  0
ARC
  5
8D43
  8
DANMEN
  6
CONTINUOUS
 10
368.85694799999987
 20
269.205152
 30
0.0
 40
0.5
 50
180.0
 51
270.0
  0
LINE
  5
8D44
  8
DANMEN
  6
CONTINUOUS
 10
368.85694799999987
 20
268.705152
 30
0.0
 11
369.50694700000003
 21
268.705152
 31
0.0
  0
ARC
  5
8D47
  8
DANMEN
  6
CONTINUOUS
 10
368.85694799999987
 20
274.20515199999988
 30
0.0
 40
0.5
 50
90.0
 51
180.0
  0
LINE
  5
8D4A
  8
DANMEN
  6
CONTINUOUS
 10
283.65878099999998
 20
338.08984800000002
 30
0.0
 11
298.13805200000002
 21
338.08984800000002
 31
0.0
  0
LINE
  5
8D4B
  8
DANMEN
  6
CONTINUOUS
 10
266.38805200000002
 20
339.03984799999989
 30
0.0
 11
258.78805199999999
 21
339.03984799999989
 31
0.0
  0
LINE
  5
8D4D
  8
DANMEN
  6
CONTINUOUS
 10
257.78805199999988
 20
340.38984799999992
 30
0.0
 11
257.78805199999988
 21
340.03984800000001
 31
0.0
  0
ARC
  5
8D50
  8
DANMEN
  6
CONTINUOUS
 10
258.78805199999999
 20
340.03984800000001
 30
0.0
 40
1.0
 50
180.0
 51
270.0
  0
LINE
  5
8D53
  8
DANMEN
  6
CONTINUOUS
 10
266.68805200000003
 20
338.73984799999988
 30
0.0
 11
266.68805200000003
 21
338.47677999999991
 31
0.0
  0
ARC
  5
8D54
  8
DANMEN
  6
CONTINUOUS
 10
266.98805199999993
 20
337.38590899999991
 30
0.0
 40
1.0
 50
114.6243179999999
 51
180.0
  0
ARC
  5
8D55
  8
DANMEN
  6
CONTINUOUS
 10
266.48805299999998
 20
338.47677999999991
 30
0.0
 40
0.2
 50
294.62431800000002
 51
0.0
  0
LINE
  5
8D56
  8
DANMEN
  6
CONTINUOUS
 10
265.98805299999992
 20
337.38590899999991
 30
0.0
 11
265.98805299999992
 21
336.13984799999992
 31
0.0
  0
ARC
  5
8D58
  8
DANMEN
  6
CONTINUOUS
 10
266.38805200000002
 20
338.73984799999988
 30
0.0
 40
0.3
 50
0.0
 51
90.0
  0
ARC
  5
8D59
  8
DANMEN
  6
CONTINUOUS
 10
269.08805199999989
 20
337.47015399999992
 30
0.0
 40
2.0
 50
0.0
 51
51.706522999999997
  0
ARC
  5
8D5A
  8
DANMEN
  6
CONTINUOUS
 10
269.08805199999989
 20
338.47677999999991
 30
0.0
 40
0.2
 50
180.0
 51
245.3756819999999
  0
ARC
  5
8D5B
  8
DANMEN
  6
CONTINUOUS
 10
268.58805199999989
 20
337.38590899999991
 30
0.0
 40
1.0
 50
0.0
 51
65.375681999999983
  0
LINE
  5
8D5C
  8
DANMEN
  6
CONTINUOUS
 10
268.88805200000002
 20
338.73984799999988
 30
0.0
 11
268.88805200000002
 21
338.47677999999991
 31
0.0
  0
LINE
  5
8D5D
  8
DANMEN
  6
CONTINUOUS
 10
269.588052
 20
337.38590899999991
 30
0.0
 11
269.588052
 21
336.13984799999992
 31
0.0
  0
LINE
  5
8D5F
  8
DANMEN
  6
CONTINUOUS
 10
270.32743099999988
 20
339.03984799999989
 30
0.0
 11
269.18805200000003
 21
339.03984799999989
 31
0.0
  0
ARC
  5
8D60
  8
DANMEN
  6
CONTINUOUS
 10
269.18805200000003
 20
338.73984799999988
 30
0.0
 40
0.3
 50
90.0
 51
180.0
  0
ARC
  5
8D62
  8
DANMEN
  6
CONTINUOUS
 10
300.98805299999992
 20
340.38590899999991
 30
0.0
 40
1.0
 50
114.6243179999999
 51
180.0
  0
ARC
  5
8D63
  8
DANMEN
  6
CONTINUOUS
 10
300.98805299999992
 20
339.13984799999992
 30
0.0
 40
1.0
 50
180.0
 51
270.0
  0
LINE
  5
8D64
  8
DANMEN
  6
CONTINUOUS
 10
300.38805200000002
 20
342.03984800000001
 30
0.0
 11
299.78805199999988
 21
342.03984800000001
 31
0.0
  0
LINE
  5
8D65
  8
DANMEN
  6
CONTINUOUS
 10
285.53805199999999
 20
336.43984799999993
 30
0.0
 11
313.13805200000002
 21
336.43984799999993
 31
0.0
  0
LINE
  5
8D67
  8
DANMEN
  6
CONTINUOUS
 10
298.13805200000002
 20
338.08984800000002
 30
0.0
 11
298.13805200000002
 21
343.78984800000001
 31
0.0
  0
LINE
  5
8D69
  8
DANMEN
  6
CONTINUOUS
 10
299.98805299999998
 20
340.38590899999991
 30
0.0
 11
299.98805299999998
 21
339.13984799999992
 31
0.0
  0
LINE
  5
8D6B
  8
DANMEN
  6
CONTINUOUS
 10
294.28805199999999
 20
345.43984799999998
 30
0.0
 11
299.28805199999988
 21
345.43984799999998
 31
0.0
  0
LINE
  5
8D6C
  8
DANMEN
  6
CONTINUOUS
 10
294.28805199999999
 20
343.78984800000001
 30
0.0
 11
298.13805200000002
 21
343.78984800000001
 31
0.0
  0
LINE
  5
8D6D
  8
DANMEN
  6
CONTINUOUS
 10
293.78805199999988
 20
344.28984800000001
 30
0.0
 11
293.78805199999988
 21
344.93984799999993
 31
0.0
  0
ARC
  5
8D6E
  8
DANMEN
  6
CONTINUOUS
 10
294.28805199999999
 20
344.93984799999993
 30
0.0
 40
0.5
 50
90.0
 51
180.0
  0
ARC
  5
8D70
  8
DANMEN
  6
CONTINUOUS
 10
294.28805199999999
 20
344.28984800000001
 30
0.0
 40
0.5
 50
180.0
 51
270.0
  0
ARC
  5
8D74
  8
DANMEN
  6
CONTINUOUS
 10
299.28805199999988
 20
344.93984799999993
 30
0.0
 40
0.5
 50
0.0
 51
90.0
  0
LINE
  5
8D77
  8
DANMEN
  6
CONTINUOUS
 10
299.78805199999988
 20
342.03984800000001
 30
0.0
 11
299.78805199999988
 21
344.93984799999993
 31
0.0
  0
LINE
  5
8D78
  8
DANMEN
  6
CONTINUOUS
 10
306.08805199999989
 20
338.08984800000002
 30
0.0
 11
313.13805200000002
 21
338.08984800000002
 31
0.0
  0
ARC
  5
8D79
  8
DANMEN
  6
CONTINUOUS
 10
303.088052
 20
340.47015399999998
 30
0.0
 40
2.0
 50
0.0
 51
51.706522999999997
  0
ARC
  5
8D7A
  8
DANMEN
  6
CONTINUOUS
 10
300.38805200000002
 20
341.73984799999999
 30
0.0
 40
0.3
 50
0.0
 51
90.0
  0
ARC
  5
8D7B
  8
DANMEN
  6
CONTINUOUS
 10
303.18805200000003
 20
341.73984799999999
 30
0.0
 40
0.3
 50
90.0
 51
180.0
  0
LINE
  5
8D7C
  8
DANMEN
  6
CONTINUOUS
 10
300.68805200000003
 20
341.73984799999999
 30
0.0
 11
300.68805200000003
 21
341.47677999999991
 31
0.0
  0
ARC
  5
8D7D
  8
DANMEN
  6
CONTINUOUS
 10
300.48805199999993
 20
341.47677999999991
 30
0.0
 40
0.2
 50
294.62431800000002
 51
0.0
  0
ARC
  5
8D7E
  8
DANMEN
  6
CONTINUOUS
 10
303.088052
 20
341.47677999999991
 30
0.0
 40
0.2
 50
180.0
 51
245.3756819999999
  0
ARC
  5
8D7F
  8
DANMEN
  6
CONTINUOUS
 10
302.588052
 20
340.38590899999991
 30
0.0
 40
1.0
 50
0.0
 51
65.375681999999983
  0
LINE
  5
8D80
  8
DANMEN
  6
CONTINUOUS
 10
302.88805200000002
 20
341.73984799999999
 30
0.0
 11
302.88805200000002
 21
341.47677999999991
 31
0.0
  0
ARC
  5
8D81
  8
DANMEN
  6
CONTINUOUS
 10
302.588052
 20
339.13984799999992
 30
0.0
 40
1.0
 50
270.0
 51
0.0
  0
LINE
  5
8D82
  8
DANMEN
  6
CONTINUOUS
 10
303.588052
 20
340.38590899999991
 30
0.0
 11
303.588052
 21
339.13984799999992
 31
0.0
  0
LINE
  5
8D83
  8
DANMEN
  6
CONTINUOUS
 10
302.588052
 20
338.13984799999992
 30
0.0
 11
300.98805299999992
 21
338.13984799999992
 31
0.0
  0
ARC
  5
8D86
  8
DANMEN
  6
CONTINUOUS
 10
306.08805199999989
 20
339.08984800000002
 30
0.0
 40
1.0
 50
180.0
 51
270.0
  0
LINE
  5
8D87
  8
DANMEN
  6
CONTINUOUS
 10
305.088052
 20
340.47015399999998
 30
0.0
 11
305.088052
 21
339.08984800000002
 31
0.0
  0
LINE
  5
8D88
  8
DANMEN
  6
CONTINUOUS
 10
304.32743099999999
 20
342.03984800000001
 30
0.0
 11
303.18805200000003
 21
342.03984800000001
 31
0.0
  0
LINE
  5
8D89
  8
DANMEN
  6
CONTINUOUS
 10
313.13805200000002
 20
338.08984800000002
 30
0.0
 11
313.13805200000002
 21
343.78984800000001
 31
0.0
  0
LINE
  5
8D8C
  8
DANMEN
  6
CONTINUOUS
 10
309.28805199999999
 20
345.43984799999998
 30
0.0
 11
314.28805199999988
 21
345.43984799999998
 31
0.0
  0
LINE
  5
8D8D
  8
DANMEN
  6
CONTINUOUS
 10
309.28805199999999
 20
343.78984800000001
 30
0.0
 11
313.13805200000002
 21
343.78984800000001
 31
0.0
  0
ARC
  5
8D8F
  8
DANMEN
  6
CONTINUOUS
 10
309.28805199999999
 20
344.28984800000001
 30
0.0
 40
0.5
 50
180.0
 51
270.0
  0
ARC
  5
8D91
  8
DANMEN
  6
CONTINUOUS
 10
309.28805199999999
 20
344.93984799999993
 30
0.0
 40
0.5
 50
90.0
 51
180.0
  0
LINE
  5
8D92
  8
DANMEN
  6
CONTINUOUS
 10
308.78805199999999
 20
344.28984800000001
 30
0.0
 11
308.78805199999999
 21
344.93984799999993
 31
0.0
  0
ARC
  5
8D94
  8
DANMEN
  6
CONTINUOUS
 10
314.28805199999988
 20
344.93984799999993
 30
0.0
 40
0.5
 50
0.0
 51
90.0
  0
LINE
  5
8D97
  8
SUNPO
  6
CONTINUOUS
 10
344.78805199999999
 20
256.43964199999999
 30
0.0
 11
344.78805199999999
 21
222.43984800000001
 31
0.0
  0
LINE
  5
8D98
  8
DANMEN
  6
CONTINUOUS
 10
383.35694799999987
 20
253.205152
 30
0.0
 11
383.35694799999987
 21
224.30515199999991
 31
0.0
  0
LINE
  5
8D99
  8
SUNPO
  6
BYBLOCK
 10
463.35694799999999
 20
174.705152
 30
0.0
 11
463.35694799999999
 21
274.70515199999988
 31
0.0
  0
LINE
  5
8D9A
  8
SUNPO
  6
BYBLOCK
 10
211.78805199999991
 20
173.93984800000001
 30
0.0
 11
211.78805199999991
 21
264.93984799999993
 31
0.0
  0
LINE
  5
8D9B
  8
DANMEN
  6
CONTINUOUS
 10
542.00694699999985
 20
273.05515200000002
 30
0.0
 11
542.00694699999985
 21
176.355152
 31
0.0
  0
LINE
  5
8D9C
  8
DANMEN
  6
CONTINUOUS
 10
540.35694799999987
 20
273.60515199999992
 30
0.0
 11
540.35694799999987
 21
226.70515199999991
 31
0.0
  0
LINE
  5
8D9D
  8
SUNPO
  6
CONTINUOUS
 10
474.35694799999999
 20
154.705152
 30
0.0
 11
525.35694799999999
 21
154.705152
 31
0.0
  0
LINE
  5
8D9E
  8
DANMEN
  6
CONTINUOUS
 10
463.35694799999999
 20
206.20515199999991
 30
0.0
 11
529.825557
 21
206.20515199999991
 31
0.0
  0
LINE
  5
8D9F
  8
DANMEN
  6
CONTINUOUS
 10
463.35694799999999
 20
209.205152
 30
0.0
 11
540.35694799999987
 21
209.205152
 31
0.0
  0
LINE
  5
8DA0
  8
DANMEN
  6
CONTINUOUS
 10
463.35694799999999
 20
239.20515199999991
 30
0.0
 11
540.35694799999987
 21
239.20515199999991
 31
0.0
  0
LINE
  5
8DA1
  8
DANMEN
  6
CONTINUOUS
 10
463.35694799999999
 20
226.70515199999991
 30
0.0
 11
540.35694799999987
 21
226.70515199999991
 31
0.0
  0
LINE
  5
8DA2
  8
DANMEN
  6
CONTINUOUS
 10
463.35694799999999
 20
216.705152
 30
0.0
 11
540.35694799999987
 21
216.705152
 31
0.0
  0
LINE
  5
8DA3
  8
DANMEN
  6
CONTINUOUS
 10
463.35694799999999
 20
174.705152
 30
0.0
 11
525.85694799999999
 21
174.705152
 31
0.0
  0
LINE
  5
8DA4
  8
DANMEN
  6
CONTINUOUS
 10
463.35694799999999
 20
178.705152
 30
0.0
 11
527.85694799999987
 21
178.705152
 31
0.0
  0
LINE
  5
8DA7
  8
DANMEN
  6
CONTINUOUS
 10
383.35694799999987
 20
239.20515199999991
 30
0.0
 11
460.35694799999999
 21
239.20515199999991
 31
0.0
  0
LINE
  5
8DA8
  8
DANMEN
  6
CONTINUOUS
 10
395.85694799999987
 20
226.70515199999991
 30
0.0
 11
460.35694799999999
 21
226.70515199999991
 31
0.0
  0
LINE
  5
8DA9
  8
DANMEN
  6
CONTINUOUS
 10
383.35694799999987
 20
209.205152
 30
0.0
 11
460.35694799999999
 21
209.205152
 31
0.0
  0
LINE
  5
8DAA
  8
DANMEN
  6
CONTINUOUS
 10
383.35694799999987
 20
206.20515199999991
 30
0.0
 11
460.35694799999999
 21
206.20515199999991
 31
0.0
  0
LINE
  5
8DAB
  8
DANMEN
  6
CONTINUOUS
 10
383.35694799999987
 20
178.705152
 30
0.0
 11
460.35694799999999
 21
178.705152
 31
0.0
  0
LINE
  5
8DAC
  8
DANMEN
  6
CONTINUOUS
 10
397.85694799999987
 20
174.705152
 30
0.0
 11
460.35694799999999
 21
174.705152
 31
0.0
  0
LINE
  5
8DAD
  8
DANMEN
  6
CONTINUOUS
 10
383.35694799999987
 20
216.705152
 30
0.0
 11
460.35694799999999
 21
216.705152
 31
0.0
  0
LINE
  5
8DAE
  8
DANMEN
  6
CONTINUOUS
 10
383.35694799999987
 20
175.80515199999991
 30
0.0
 11
383.35694799999987
 21
223.205152
 31
0.0
  0
LINE
  5
8DAF
  8
DANMEN
  6
CONTINUOUS
 10
385.35694799999987
 20
176.355152
 30
0.0
 11
397.85694799999987
 21
176.355152
 31
0.0
  0
LINE
  5
8DB3
  8
DANMEN
  6
CONTINUOUS
 10
385.35694799999987
 20
176.355152
 30
0.0
 11
385.35694799999987
 21
175.80515199999991
 31
0.0
  0
LINE
  5
8DB4
  8
DANMEN
  6
CONTINUOUS
 10
383.35694799999987
 20
175.80515199999991
 30
0.0
 11
385.35694799999987
 21
175.80515199999991
 31
0.0
  0
ARC
  5
8DB6
  8
DANMEN
  6
CONTINUOUS
 10
397.85694799999987
 20
175.205152
 30
0.0
 40
0.5
 50
270.0
 51
0.0
  0
ARC
  5
8DB8
  8
DANMEN
  6
CONTINUOUS
 10
397.85694799999987
 20
175.855152
 30
0.0
 40
0.5
 50
0.0
 51
90.0
  0
LINE
  5
8DB9
  8
DANMEN
  6
CONTINUOUS
 10
398.35694799999987
 20
175.855152
 30
0.0
 11
398.35694799999987
 21
175.205152
 31
0.0
  0
LINE
  5
8DBB
  8
DANMEN
  6
CONTINUOUS
 10
388.46766200000002
 20
227.50515200000001
 30
0.0
 11
385.18270199999989
 21
234.03377399999999
 31
0.0
  0
LINE
  5
8DBC
  8
DANMEN
  6
CONTINUOUS
 10
388.08657499999993
 20
226.70515199999991
 30
0.0
 11
384.76337000000001
 21
233.30978500000001
 31
0.0
  0
LINE
  5
8DBD
  8
DANMEN
  6
CONTINUOUS
 10
389.35694799999999
 20
224.30515199999991
 30
0.0
 11
395.35694799999999
 21
224.30515199999991
 31
0.0
  0
ARC
  5
8DBE
  8
DANMEN
  6
CONTINUOUS
 10
390.05694699999998
 20
226.20515199999991
 30
0.0
 40
0.5
 50
0.0
 51
90.0
  0
LINE
  5
8DBF
  8
DANMEN
  6
CONTINUOUS
 10
389.35694799999999
 20
225.90515199999999
 30
0.0
 11
390.55694699999998
 21
225.90515199999999
 31
0.0
  0
LINE
  5
8DC0
  8
DANMEN
  6
CONTINUOUS
 10
383.35694799999987
 20
223.205152
 30
0.0
 11
395.85694799999987
 21
223.205152
 31
0.0
  0
LINE
  5
8DC1
  8
DANMEN
  6
CONTINUOUS
 10
388.46766200000002
 20
227.50515200000001
 30
0.0
 11
391.206951
 21
227.50515200000001
 31
0.0
  0
LINE
  5
8DC2
  8
DANMEN
  6
CONTINUOUS
 10
388.08657499999993
 20
226.70515199999991
 30
0.0
 11
390.70695099999989
 21
226.70515199999991
 31
0.0
  0
LINE
  5
8DC3
  8
DANMEN
  6
CONTINUOUS
 10
389.70695000000001
 20
224.70515199999991
 30
0.0
 11
390.70695099999989
 21
224.70515199999991
 31
0.0
  0
LINE
  5
8DC4
  8
DANMEN
  6
CONTINUOUS
 10
389.70695000000001
 20
225.705152
 30
0.0
 11
390.70695099999989
 21
225.705152
 31
0.0
  0
LINE
  5
8DC5
  8
DANMEN
  6
CONTINUOUS
 10
389.35694799999999
 20
225.90515199999999
 30
0.0
 11
389.35694799999999
 21
224.30515199999991
 31
0.0
  0
LINE
  5
8DC6
  8
DANMEN
  6
CONTINUOUS
 10
388.35694799999987
 20
226.20515199999991
 30
0.0
 11
388.35694799999987
 21
224.30515199999991
 31
0.0
  0
LINE
  5
8DC7
  8
DANMEN
  6
CONTINUOUS
 10
383.35694799999987
 20
224.30515199999991
 30
0.0
 11
388.35694799999987
 21
224.30515199999991
 31
0.0
  0
ARC
  5
8DCE
  8
DANMEN
  6
CONTINUOUS
 10
389.70695000000001
 20
225.50515200000001
 30
0.0
 40
0.2
 50
89.999981999999974
 51
180.0000189999999
  0
ARC
  5
8DD0
  8
DANMEN
  6
CONTINUOUS
 10
389.70695000000001
 20
224.90515199999999
 30
0.0
 40
0.2
 50
180.0000189999999
 51
270.000001
  0
LINE
  5
8DD2
  8
DANMEN
  6
CONTINUOUS
 10
389.5069509999999
 20
225.50515200000001
 30
0.0
 11
389.5069509999999
 21
224.90515199999999
 31
0.0
  0
LINE
  5
8DD3
  8
DANMEN
  6
CONTINUOUS
 10
383.35694799999987
 20
226.70515199999991
 30
0.0
 11
388.85694799999999
 21
226.70515199999991
 31
0.0
  0
ARC
  5
8DD6
  8
DANMEN
  6
CONTINUOUS
 10
388.85694799999999
 20
226.20515199999991
 30
0.0
 40
0.5
 50
90.0
 51
180.0
  0
LINE
  5
8DD7
  8
DANMEN
  6
CONTINUOUS
 10
388.85694799999999
 20
226.70515199999991
 30
0.0
 11
390.05694699999998
 21
226.70515199999991
 31
0.0
  0
LINE
  5
8DDA
  8
DANMEN
  6
CONTINUOUS
 10
395.35694799999999
 20
225.90515199999999
 30
0.0
 11
395.35694799999999
 21
224.30515199999991
 31
0.0
  0
LINE
  5
8DDB
  8
DANMEN
  6
CONTINUOUS
 10
396.35694799999987
 20
226.20515199999991
 30
0.0
 11
396.35694799999987
 21
223.705152
 31
0.0
  0
LINE
  5
8DDC
  8
DANMEN
  6
CONTINUOUS
 10
394.0069509999999
 20
226.70515199999991
 30
0.0
 11
394.0069509999999
 21
225.705152
 31
0.0
  0
LINE
  5
8DDD
  8
DANMEN
  6
CONTINUOUS
 10
390.70695099999989
 20
226.70515199999991
 30
0.0
 11
390.70695099999989
 21
225.705152
 31
0.0
  0
LINE
  5
8DDE
  8
DANMEN
  6
CONTINUOUS
 10
394.0069509999999
 20
225.705152
 30
0.0
 11
395.0069529999999
 21
225.705152
 31
0.0
  0
LINE
  5
8DDF
  8
DANMEN
  6
CONTINUOUS
 10
394.0069509999999
 20
224.70515199999991
 30
0.0
 11
395.0069529999999
 21
224.70515199999991
 31
0.0
  0
LINE
  5
8DE4
  8
DANMEN
  6
CONTINUOUS
 10
391.5069529999999
 20
225.50515200000001
 30
0.0
 11
393.20695000000001
 21
225.50515200000001
 31
0.0
  0
LINE
  5
8DE9
  8
DANMEN
  6
CONTINUOUS
 10
391.5069509999999
 20
225.50515200000001
 30
0.0
 11
390.70695099999989
 21
224.70515199999991
 31
0.0
  0
LINE
  5
8DEA
  8
DANMEN
  6
CONTINUOUS
 10
393.206951
 20
225.50515200000001
 30
0.0
 11
394.0069509999999
 21
224.70515199999991
 31
0.0
  0
ARC
  5
8DEF
  8
DANMEN
  6
CONTINUOUS
 10
395.85694799999987
 20
223.705152
 30
0.0
 40
0.5
 50
270.0
 51
0.0
  0
ARC
  5
8DF1
  8
DANMEN
  6
CONTINUOUS
 10
395.0069529999999
 20
224.90515199999999
 30
0.0
 40
0.2
 50
270.0000179999999
 51
0.0
  0
ARC
  5
8DF3
  8
DANMEN
  6
CONTINUOUS
 10
395.0069529999999
 20
225.50515200000001
 30
0.0
 40
0.2
 50
0.0
 51
89.999981999999974
  0
LINE
  5
8DF5
  8
DANMEN
  6
CONTINUOUS
 10
395.206951
 20
225.50515200000001
 30
0.0
 11
395.206951
 21
224.90515199999999
 31
0.0
  0
ARC
  5
8DF6
  8
DANMEN
  6
CONTINUOUS
 10
394.65694799999989
 20
226.20515199999991
 30
0.0
 40
0.5
 50
90.0
 51
180.0
  0
LINE
  5
8DF7
  8
DANMEN
  6
CONTINUOUS
 10
394.156948
 20
225.90515199999999
 30
0.0
 11
395.35694799999999
 21
225.90515199999999
 31
0.0
  0
ARC
  5
8DF8
  8
DANMEN
  6
CONTINUOUS
 10
389.51124700000003
 20
218.579902
 30
0.0
 40
11.5
 50
58.283718000000007
 51
82.313893000000007
  0
ARC
  5
8DF9
  8
DANMEN
  6
CONTINUOUS
 10
390.00553599999989
 20
218.52382
 30
0.0
 40
12.0
 50
58.042869999999979
 51
84.739831999999993
  0
LINE
  5
8DFA
  8
DANMEN
  6
CONTINUOUS
 10
393.60695199999992
 20
227.50515200000001
 30
0.0
 11
395.55695099999991
 21
227.50515200000001
 31
0.0
  0
LINE
  5
8DFB
  8
DANMEN
  6
CONTINUOUS
 10
394.0069509999999
 20
226.70515199999991
 30
0.0
 11
396.35695199999998
 21
226.70515199999991
 31
0.0
  0
LINE
  5
8E00
  8
DANMEN
  6
CONTINUOUS
 10
394.156948
 20
226.20515199999991
 30
0.0
 11
394.156948
 21
225.90515199999999
 31
0.0
  0
LINE
  5
8E01
  8
DANMEN
  6
CONTINUOUS
 10
390.55694699999998
 20
226.20515199999991
 30
0.0
 11
390.55694699999998
 21
225.90515199999999
 31
0.0
  0
LINE
  5
8E02
  8
DANMEN
  6
CONTINUOUS
 10
391.5069509999999
 20
228.38675799999999
 30
0.0
 11
392.31652400000002
 21
229.252714
 31
0.0
  0
LINE
  5
8E03
  8
DANMEN
  6
CONTINUOUS
 10
391.206951
 20
228.5051509999999
 30
0.0
 11
392.09737899999999
 21
229.45759100000001
 31
0.0
  0
ARC
  5
8E05
  8
DANMEN
  6
CONTINUOUS
 10
393.60695199999992
 20
227.10515199999989
 30
0.0
 40
0.4
 50
89.999981999999974
 51
180.0000189999999
  0
ARC
  5
8E0C
  8
DANMEN
  6
CONTINUOUS
 10
392.206951
 20
229.35515299999989
 30
0.0
 40
0.15
 50
316.92732499999988
 51
136.92732499999991
  0
LINE
  5
8E0D
  8
DANMEN
  6
CONTINUOUS
 10
391.206951
 20
228.5051509999999
 30
0.0
 11
391.206951
 21
227.50515200000001
 31
0.0
  0
ARC
  5
8E10
  8
DANMEN
  6
CONTINUOUS
 10
391.082761
 20
230.22433599999991
 30
0.0
 40
0.25
 50
84.739831999999993
 51
262.31389300000001
  0
LINE
  5
8E13
  8
DANMEN
  6
CONTINUOUS
 10
391.5069509999999
 20
226.70515199999991
 30
0.0
 11
393.206951
 21
226.70515199999991
 31
0.0
  0
LINE
  5
8E17
  8
DANMEN
  6
CONTINUOUS
 10
391.5069509999999
 20
228.38675799999999
 30
0.0
 11
391.5069509999999
 21
226.70515199999991
 31
0.0
  0
LINE
  5
8E18
  8
DANMEN
  6
CONTINUOUS
 10
393.206951
 20
227.10515199999989
 30
0.0
 11
393.206951
 21
226.70515199999991
 31
0.0
  0
LINE
  5
8E1A
  8
DANMEN
  6
CONTINUOUS
 10
394.65694799999989
 20
226.70515199999991
 30
0.0
 11
395.85694799999987
 21
226.70515199999991
 31
0.0
  0
ARC
  5
8E1C
  8
DANMEN
  6
CONTINUOUS
 10
395.85694799999987
 20
226.20515199999991
 30
0.0
 40
0.5
 50
0.0
 51
90.0
  0
LINE
  5
8E1F
  8
DANMEN
  6
CONTINUOUS
 10
395.55695099999991
 20
228.3625119999999
 30
0.0
 11
395.55695099999991
 21
227.50515200000001
 31
0.0
  0
LINE
  5
8E21
  8
DANMEN
  6
CONTINUOUS
 10
396.35695199999998
 20
228.70515199999991
 30
0.0
 11
396.35695199999998
 21
226.70515199999991
 31
0.0
  0
ARC
  5
8E27
  8
DANMEN
  6
CONTINUOUS
 10
384.73605499999991
 20
233.80903799999999
 30
0.0
 40
0.5
 50
26.709831000000001
 51
273.131619
  0
LINE
  5
8E28
  8
DANMEN
  6
CONTINUOUS
 10
540.35694799999987
 20
205.205152
 30
0.0
 11
540.35694799999987
 21
175.80515199999991
 31
0.0
  0
LINE
  5
8E29
  8
DANMEN
  6
CONTINUOUS
 10
542.00694699999985
 20
176.355152
 30
0.0
 11
553.70694700000001
 21
176.355152
 31
0.0
  0
LINE
  5
8E2A
  8
DANMEN
  6
CONTINUOUS
 10
525.85694799999999
 20
174.705152
 30
0.0
 11
554.85694799999999
 21
174.705152
 31
0.0
  0
LINE
  5
8E2B
  8
DANMEN
  6
CONTINUOUS
 10
528.35694799999987
 20
176.355152
 30
0.0
 11
534.35694799999999
 21
176.355152
 31
0.0
  0
ARC
  5
8E2C
  8
DANMEN
  6
CONTINUOUS
 10
534.20265099999995
 20
170.579902
 30
0.0
 40
11.5
 50
97.686106999999993
 51
121.71628200000001
  0
ARC
  5
8E2D
  8
DANMEN
  6
CONTINUOUS
 10
533.70836199999985
 20
170.52382
 30
0.0
 40
12.0
 50
95.260167999999993
 51
121.95712999999991
  0
LINE
  5
8E2E
  8
DANMEN
  6
CONTINUOUS
 10
530.10694799999987
 20
179.50515200000001
 30
0.0
 11
528.15694699999995
 21
179.50515200000001
 31
0.0
  0
LINE
  5
8E2F
  8
DANMEN
  6
CONTINUOUS
 10
530.50694699999985
 20
177.50515200000001
 30
0.0
 11
529.70694800000001
 21
176.705152
 31
0.0
  0
LINE
  5
8E30
  8
DANMEN
  6
CONTINUOUS
 10
527.35694799999987
 20
180.70515199999991
 30
0.0
 11
527.35694799999987
 21
178.705152
 31
0.0
  0
ARC
  5
8E31
  8
DANMEN
  6
CONTINUOUS
 10
525.85694799999999
 20
175.855152
 30
0.0
 40
0.5
 50
90.0
 51
180.0
  0
ARC
  5
8E32
  8
DANMEN
  6
CONTINUOUS
 10
525.85694799999999
 20
175.205152
 30
0.0
 40
0.5
 50
180.0
 51
270.0
  0
LINE
  5
8E35
  8
DANMEN
  6
CONTINUOUS
 10
525.35694799999999
 20
175.855152
 30
0.0
 11
525.35694799999999
 21
175.205152
 31
0.0
  0
LINE
  5
8E3A
  8
DANMEN
  6
CONTINUOUS
 10
528.35694799999987
 20
177.90515199999999
 30
0.0
 11
528.35694799999987
 21
176.355152
 31
0.0
  0
ARC
  5
8E3D
  8
DANMEN
  6
CONTINUOUS
 10
529.05694699999992
 20
178.205152
 30
0.0
 40
0.5
 50
0.0
 51
90.0
  0
LINE
  5
8E3E
  8
DANMEN
  6
CONTINUOUS
 10
529.55694699999992
 20
178.205152
 30
0.0
 11
529.55694699999992
 21
177.90515199999999
 31
0.0
  0
LINE
  5
8E3F
  8
DANMEN
  6
CONTINUOUS
 10
528.35694799999987
 20
177.90515199999999
 30
0.0
 11
529.55694699999992
 21
177.90515199999999
 31
0.0
  0
ARC
  5
8E41
  8
DANMEN
  6
CONTINUOUS
 10
527.85694799999987
 20
178.205152
 30
0.0
 40
0.5
 50
90.0
 51
180.0
  0
LINE
  5
8E42
  8
DANMEN
  6
CONTINUOUS
 10
527.35694799999987
 20
178.205152
 30
0.0
 11
527.35694799999987
 21
176.355152
 31
0.0
  0
LINE
  5
8E43
  8
DANMEN
  6
CONTINUOUS
 10
527.85694799999987
 20
178.705152
 30
0.0
 11
529.05694699999992
 21
178.705152
 31
0.0
  0
LINE
  5
8E44
  8
DANMEN
  6
CONTINUOUS
 10
525.85694799999999
 20
176.355152
 30
0.0
 11
527.35694799999987
 21
176.355152
 31
0.0
  0
LINE
  5
8E48
  8
DANMEN
  6
CONTINUOUS
 10
529.70694800000001
 20
178.705152
 30
0.0
 11
527.35694799999987
 21
178.705152
 31
0.0
  0
LINE
  5
8E4A
  8
DANMEN
  6
CONTINUOUS
 10
529.70694800000001
 20
178.705152
 30
0.0
 11
529.70694800000001
 21
177.705152
 31
0.0
  0
LINE
  5
8E4B
  8
DANMEN
  6
CONTINUOUS
 10
529.70694800000001
 20
177.705152
 30
0.0
 11
528.70694600000002
 21
177.705152
 31
0.0
  0
ARC
  5
8E4C
  8
DANMEN
  6
CONTINUOUS
 10
528.70694600000002
 20
176.90515199999999
 30
0.0
 40
0.2
 50
180.0
 51
269.99998199999987
  0
ARC
  5
8E4E
  8
DANMEN
  6
CONTINUOUS
 10
528.70694600000002
 20
177.50515200000001
 30
0.0
 40
0.2
 50
90.000018000000011
 51
180.0
  0
LINE
  5
8E51
  8
DANMEN
  6
CONTINUOUS
 10
529.70694800000001
 20
176.705152
 30
0.0
 11
528.70694600000002
 21
176.705152
 31
0.0
  0
LINE
  5
8E53
  8
DANMEN
  6
CONTINUOUS
 10
528.50694699999985
 20
177.50515200000001
 30
0.0
 11
528.50694699999985
 21
176.90515199999999
 31
0.0
  0
LINE
  5
8E56
  8
DANMEN
  6
CONTINUOUS
 10
528.15694699999995
 20
180.36251200000001
 30
0.0
 11
528.15694699999995
 21
179.50515200000001
 31
0.0
  0
LINE
  5
8E58
  8
DANMEN
  6
CONTINUOUS
 10
535.24623699999995
 20
179.50515200000001
 30
0.0
 11
538.53119700000002
 21
186.03377399999999
 31
0.0
  0
LINE
  5
8E59
  8
DANMEN
  6
CONTINUOUS
 10
535.62732400000004
 20
178.705152
 30
0.0
 11
538.95052799999996
 21
185.30978500000001
 31
0.0
  0
LINE
  5
8E5A
  8
DANMEN
  6
CONTINUOUS
 10
534.85694799999999
 20
178.705152
 30
0.0
 11
540.35694799999987
 21
178.705152
 31
0.0
  0
LINE
  5
8E5B
  8
DANMEN
  6
CONTINUOUS
 10
535.35694799999987
 20
176.355152
 30
0.0
 11
538.35694799999999
 21
176.355152
 31
0.0
  0
ARC
  5
8E5C
  8
DANMEN
  6
CONTINUOUS
 10
530.10694799999987
 20
179.105152
 30
0.0
 40
0.4
 50
359.99998099999988
 51
90.000018000000011
  0
LINE
  5
8E5D
  8
DANMEN
  6
CONTINUOUS
 10
532.20694700000001
 20
180.38675799999999
 30
0.0
 11
532.20694700000001
 21
178.705152
 31
0.0
  0
LINE
  5
8E5E
  8
DANMEN
  6
CONTINUOUS
 10
533.15694699999995
 20
177.90515199999999
 30
0.0
 11
534.35694799999999
 21
177.90515199999999
 31
0.0
  0
LINE
  5
8E5F
  8
DANMEN
  6
CONTINUOUS
 10
533.65694699999995
 20
178.705152
 30
0.0
 11
534.85694799999999
 21
178.705152
 31
0.0
  0
LINE
  5
8E60
  8
DANMEN
  6
CONTINUOUS
 10
535.62732400000004
 20
178.705152
 30
0.0
 11
533.00694699999985
 21
178.705152
 31
0.0
  0
ARC
  5
8E61
  8
DANMEN
  6
CONTINUOUS
 10
534.00694900000008
 20
177.50515200000001
 30
0.0
 40
0.2
 50
359.99998099999988
 51
90.000018000000011
  0
ARC
  5
8E62
  8
DANMEN
  6
CONTINUOUS
 10
534.00694900000008
 20
176.90515199999999
 30
0.0
 40
0.2
 50
269.999999
 51
359.99998099999988
  0
ARC
  5
8E65
  8
DANMEN
  6
CONTINUOUS
 10
533.65694699999995
 20
178.205152
 30
0.0
 40
0.5
 50
90.0
 51
180.0
  0
LINE
  5
8E66
  8
DANMEN
  6
CONTINUOUS
 10
533.15694699999995
 20
178.205152
 30
0.0
 11
533.15694699999995
 21
177.90515199999999
 31
0.0
  0
LINE
  5
8E6B
  8
DANMEN
  6
CONTINUOUS
 10
532.20694700000001
 20
178.705152
 30
0.0
 11
530.50694699999985
 21
178.705152
 31
0.0
  0
LINE
  5
8E6E
  8
DANMEN
  6
CONTINUOUS
 10
532.20694600000002
 20
177.50515200000001
 30
0.0
 11
530.50694900000008
 21
177.50515200000001
 31
0.0
  0
LINE
  5
8E72
  8
DANMEN
  6
CONTINUOUS
 10
530.50694699999985
 20
179.105152
 30
0.0
 11
530.50694699999985
 21
178.705152
 31
0.0
  0
LINE
  5
8E73
  8
DANMEN
  6
CONTINUOUS
 10
533.00694699999985
 20
178.705152
 30
0.0
 11
533.00694699999985
 21
177.705152
 31
0.0
  0
LINE
  5
8E75
  8
DANMEN
  6
CONTINUOUS
 10
532.20694700000001
 20
177.50515200000001
 30
0.0
 11
533.00694699999985
 21
176.705152
 31
0.0
  0
LINE
  5
8E77
  8
DANMEN
  6
CONTINUOUS
 10
534.00694900000008
 20
176.705152
 30
0.0
 11
533.00694699999985
 21
176.705152
 31
0.0
  0
LINE
  5
8E78
  8
DANMEN
  6
CONTINUOUS
 10
534.00694900000008
 20
177.705152
 30
0.0
 11
533.00694699999985
 21
177.705152
 31
0.0
  0
LINE
  5
8E7C
  8
DANMEN
  6
CONTINUOUS
 10
534.35694799999999
 20
177.90515199999999
 30
0.0
 11
534.35694799999999
 21
176.355152
 31
0.0
  0
ARC
  5
8E7E
  8
DANMEN
  6
CONTINUOUS
 10
534.85694799999999
 20
178.205152
 30
0.0
 40
0.5
 50
0.0
 51
90.0
  0
LINE
  5
8E7F
  8
DANMEN
  6
CONTINUOUS
 10
535.35694799999987
 20
178.205152
 30
0.0
 11
535.35694799999987
 21
176.355152
 31
0.0
  0
LINE
  5
8E83
  8
DANMEN
  6
CONTINUOUS
 10
534.20694800000001
 20
177.50515200000001
 30
0.0
 11
534.20694800000001
 21
176.90515199999999
 31
0.0
  0
LINE
  5
8E85
  8
DANMEN
  6
CONTINUOUS
 10
535.24623699999995
 20
179.50515200000001
 30
0.0
 11
532.50694699999985
 21
179.50515200000001
 31
0.0
  0
LINE
  5
8E86
  8
DANMEN
  6
CONTINUOUS
 10
532.20694700000001
 20
180.38675799999999
 30
0.0
 11
531.39737400000001
 21
181.252714
 31
0.0
  0
LINE
  5
8E87
  8
DANMEN
  6
CONTINUOUS
 10
532.50694699999985
 20
180.50515100000001
 30
0.0
 11
531.61652000000004
 21
181.45759099999989
 31
0.0
  0
ARC
  5
8E8F
  8
DANMEN
  6
CONTINUOUS
 10
531.50694699999997
 20
181.35515299999989
 30
0.0
 40
0.15
 50
43.072674999999997
 51
223.072675
  0
LINE
  5
8E90
  8
DANMEN
  6
CONTINUOUS
 10
532.50694699999985
 20
180.50515100000001
 30
0.0
 11
532.50694699999985
 21
179.50515200000001
 31
0.0
  0
ARC
  5
8E93
  8
DANMEN
  6
CONTINUOUS
 10
532.63113699999985
 20
182.22433599999999
 30
0.0
 40
0.25
 50
277.68610699999988
 51
95.260167999999993
  0
LINE
  5
8E99
  8
DANMEN
  6
CONTINUOUS
 10
538.35694799999999
 20
175.80515199999991
 30
0.0
 11
540.35694799999987
 21
175.80515199999991
 31
0.0
  0
LINE
  5
8E9A
  8
DANMEN
  6
CONTINUOUS
 10
538.35694799999999
 20
176.355152
 30
0.0
 11
538.35694799999999
 21
175.80515199999991
 31
0.0
  0
ARC
  5
8E9F
  8
DANMEN
  6
CONTINUOUS
 10
538.97784299999989
 20
185.8090379999999
 30
0.0
 40
0.5
 50
266.868381
 51
153.29016899999991
  0
LINE
  5
8EA0
  8
DANMEN
  6
CONTINUOUS
 10
554.20694700000001
 20
180.70515199999991
 30
0.0
 11
554.85694799999999
 21
180.70515199999991
 31
0.0
  0
LINE
  5
8EA1
  8
DANMEN
  6
CONTINUOUS
 10
553.70694700000001
 20
180.205152
 30
0.0
 11
553.70694700000001
 21
176.355152
 31
0.0
  0
ARC
  5
8EA4
  8
DANMEN
  6
CONTINUOUS
 10
554.20694700000001
 20
180.205152
 30
0.0
 40
0.5
 50
90.0
 51
180.0
  0
LINE
  5
8EA5
  8
DANMEN
  6
CONTINUOUS
 10
555.35694799999999
 20
180.205152
 30
0.0
 11
555.35694799999999
 21
175.205152
 31
0.0
  0
ARC
  5
8EA7
  8
DANMEN
  6
CONTINUOUS
 10
554.85694799999999
 20
175.205152
 30
0.0
 40
0.5
 50
270.0
 51
0.0
  0
ARC
  5
8EA9
  8
DANMEN
  6
CONTINUOUS
 10
554.85694799999999
 20
180.205152
 30
0.0
 40
0.5
 50
0.0
 51
90.0
  0
LINE
  5
8EAA
  8
DANMEN
  6
CONTINUOUS
 10
540.35694799999987
 20
225.605152
 30
0.0
 11
540.35694799999987
 21
207.00515200000001
 31
0.0
  0
ARC
  5
8EAB
  8
DANMEN
  6
CONTINUOUS
 10
530.35694799999999
 20
207.358025
 30
0.0
 40
1.0
 50
99.462322
 51
180.0
  0
ARC
  5
8EAC
  8
DANMEN
  6
CONTINUOUS
 10
530.35694799999999
 20
207.052279
 30
0.0
 40
1.0
 50
180.0
 51
260.53767799999991
  0
LINE
  5
8EB1
  8
DANMEN
  6
CONTINUOUS
 10
529.35694799999999
 20
207.358025
 30
0.0
 11
529.35694799999999
 21
207.052279
 31
0.0
  0
ARC
  5
8EB2
  8
DANMEN
  6
CONTINUOUS
 10
534.51340599999992
 20
208.5576649999999
 30
0.0
 40
0.5
 50
335.55604499999998
 51
99.462322
  0
LINE
  5
8EB3
  8
DANMEN
  6
CONTINUOUS
 10
534.43120699999997
 20
209.050862
 30
0.0
 11
530.19254799999999
 21
208.3444189999999
 31
0.0
  0
LINE
  5
8EB4
  8
DANMEN
  6
CONTINUOUS
 10
535.13344900000004
 20
207.00515200000001
 30
0.0
 11
540.35694799999987
 21
207.00515200000001
 31
0.0
  0
LINE
  5
8EB5
  8
DANMEN
  6
CONTINUOUS
 10
535.43970999999988
 20
205.205152
 30
0.0
 11
540.35694799999987
 21
205.205152
 31
0.0
  0
LINE
  5
8EB6
  8
DANMEN
  6
CONTINUOUS
 10
530.19254799999999
 20
206.06588500000001
 30
0.0
 11
535.27531099999999
 21
205.21875800000001
 31
0.0
  0
ARC
  5
8EB9
  8
DANMEN
  6
CONTINUOUS
 10
535.13344900000004
 20
207.50515200000001
 30
0.0
 40
0.5
 50
155.5560449999999
 51
270.0
  0
ARC
  5
8EBB
  8
DANMEN
  6
CONTINUOUS
 10
535.43970999999988
 20
206.20515199999991
 30
0.0
 40
1.0
 50
260.53767799999991
 51
270.0
  0
LINE
  5
8EBC
  8
DANMEN
  6
CONTINUOUS
 10
534.67826600000001
 20
207.712053
 30
0.0
 11
534.96858899999995
 21
208.350763
 31
0.0
  0
LINE
  5
8EC1
  8
DANMEN
  6
CONTINUOUS
 10
525.85694799999999
 20
225.05515199999999
 30
0.0
 11
535.35694799999987
 21
225.05515199999999
 31
0.0
  0
LINE
  5
8EC2
  8
DANMEN
  6
CONTINUOUS
 10
525.85694799999999
 20
226.70515199999991
 30
0.0
 11
540.35694799999987
 21
226.70515199999991
 31
0.0
  0
LINE
  5
8EC3
  8
DANMEN
  6
CONTINUOUS
 10
525.35694799999999
 20
226.20515199999991
 30
0.0
 11
525.35694799999999
 21
225.55515199999999
 31
0.0
  0
ARC
  5
8EC4
  8
DANMEN
  6
CONTINUOUS
 10
525.85694799999999
 20
225.55515199999999
 30
0.0
 40
0.5
 50
180.0
 51
270.0
  0
ARC
  5
8EC6
  8
DANMEN
  6
CONTINUOUS
 10
525.85694799999999
 20
226.20515199999991
 30
0.0
 40
0.5
 50
90.0
 51
180.0
  0
LINE
  5
8EC8
  8
DANMEN
  6
CONTINUOUS
 10
536.35694799999987
 20
225.05515199999999
 30
0.0
 11
538.35694799999999
 21
225.05515199999999
 31
0.0
  0
ARC
  5
8ECA
  8
DANMEN
  6
CONTINUOUS
 10
535.85694799999987
 20
224.20515199999991
 30
0.0
 40
0.5
 50
180.0
 51
270.0
  0
LINE
  5
8ECE
  8
DANMEN
  6
CONTINUOUS
 10
535.35694799999987
 20
225.05515199999999
 30
0.0
 11
535.35694799999987
 21
224.20515199999991
 31
0.0
  0
LINE
  5
8ECF
  8
DANMEN
  6
CONTINUOUS
 10
536.35694799999987
 20
225.05515199999999
 30
0.0
 11
536.35694799999987
 21
223.705152
 31
0.0
  0
LINE
  5
8ED0
  8
DANMEN
  6
CONTINUOUS
 10
535.85694799999987
 20
223.705152
 30
0.0
 11
536.35694799999987
 21
223.705152
 31
0.0
  0
LINE
  5
8ED4
  8
DANMEN
  6
CONTINUOUS
 10
538.35694799999999
 20
225.605152
 30
0.0
 11
538.35694799999999
 21
225.05515199999999
 31
0.0
  0
LINE
  5
8ED5
  8
DANMEN
  6
CONTINUOUS
 10
538.35694799999999
 20
225.605152
 30
0.0
 11
540.35694799999987
 21
225.605152
 31
0.0
  0
LINE
  5
8ED7
  8
SUNPO
  6
BYBLOCK
 10
204.78805199999999
 20
162.43984800000001
 30
0.0
 11
204.78805199999999
 21
222.43984800000001
 31
0.0
  0
LINE
  5
8ED8
  8
SUNPO
  6
BYBLOCK
 10
213.28805199999999
 20
162.43984800000001
 30
0.0
 11
204.78805199999999
 21
162.43984800000001
 31
0.0
  0
LINE
  5
8ED9
  8
SUNPO
  6
BYBLOCK
 10
225.28805199999999
 20
153.43984800000001
 30
0.0
 11
204.78805199999999
 21
153.43984800000001
 31
0.0
  0
LINE
  5
8EDA
  8
SUNPO
  6
BYBLOCK
 10
204.78805199999999
 20
153.43984800000001
 30
0.0
 11
204.78805199999999
 21
162.43984800000001
 31
0.0
  0
TEXT
  5
8EDB
  8
SUNPO
  6
CONTINUOUS
 10
204.28805199999991
 20
157.106515
 30
0.0
 40
2.5
  1
9
 50
90.0
  7
MX_NOTE_STANDARD
  0
ARC
  5
8EDC
  8
SUNPO
  6
BYBLOCK
 10
204.78805199999999
 20
153.43984800000001
 30
0.0
 40
0.145
 50
90.0
 51
270.0
  0
ARC
  5
8EDD
  8
SUNPO
  6
BYBLOCK
 10
204.78805199999999
 20
153.43984800000001
 30
0.0
 40
0.145
 50
270.0
 51
90.0
  0
ARC
  5
8EE0
  8
SUNPO
  6
BYBLOCK
 10
204.78805199999999
 20
162.43984800000001
 30
0.0
 40
0.145
 50
90.0
 51
270.0
  0
ARC
  5
8EE1
  8
SUNPO
  6
BYBLOCK
 10
204.78805199999999
 20
162.43984800000001
 30
0.0
 40
0.145
 50
270.0
 51
90.0
  0
ARC
  5
8EE2
  8
SUNPO
  6
BYBLOCK
 10
204.78805199999999
 20
162.43984800000001
 30
0.0
 40
0.145
 50
270.0
 51
90.0
  0
ARC
  5
8EE3
  8
SUNPO
  6
BYBLOCK
 10
204.78805199999999
 20
162.43984800000001
 30
0.0
 40
0.145
 50
90.0
 51
270.0
  0
TEXT
  5
8EE5
  8
SUNPO
  6
CONTINUOUS
 10
204.28805199999991
 20
190.56484800000001
 30
0.0
 40
2.5
  1
60
 50
90.0
  7
MX_NOTE_STANDARD
  0
LINE
  5
8EE8
  8
SUNPO
  6
BYBLOCK
 10
213.28805199999999
 20
222.43984800000001
 30
0.0
 11
204.78805199999999
 21
222.43984800000001
 31
0.0
  0
ARC
  5
8EEA
  8
SUNPO
  6
BYBLOCK
 10
204.78805199999999
 20
222.43984800000001
 30
0.0
 40
0.145
 50
270.0
 51
90.0
  0
ARC
  5
8EEB
  8
SUNPO
  6
BYBLOCK
 10
204.78805199999999
 20
222.43984800000001
 30
0.0
 40
0.145
 50
90.0
 51
270.0
  0
LINE
  5
8EED
  8
SUNPO
  6
BYBLOCK
 10
398.35694799999987
 20
154.705152
 30
0.0
 11
368.35694799999999
 21
154.705152
 31
0.0
  0
LINE
  5
8EEE
  8
SUNPO
  6
BYBLOCK
 10
383.35694799999987
 20
164.70515199999991
 30
0.0
 11
368.35694799999999
 21
164.70515199999991
 31
0.0
  0
TEXT
  5
8EEF
  8
SUNPO
  6
CONTINUOUS
 10
374.19028100000003
 20
165.205152
 30
0.0
 40
2.5
  1
15
  7
MX_NOTE_STANDARD
  0
LINE
  5
8EF0
  8
SUNPO
  6
BYBLOCK
 10
344.78805199999999
 20
222.43984800000001
 30
0.0
 11
344.78805199999999
 21
162.43984800000001
 31
0.0
  0
LINE
  5
8EF1
  8
SUNPO
  6
BYBLOCK
 10
334.78805199999988
 20
222.43984800000001
 30
0.0
 11
334.78805199999988
 21
182.43984800000001
 31
0.0
  0
LINE
  5
8EF2
  8
SUNPO
  6
BYBLOCK
 10
316.28805199999988
 20
162.43984800000001
 30
0.0
 11
344.78805199999999
 21
162.43984800000001
 31
0.0
  0
TEXT
  5
8EF3
  8
SUNPO
  6
CONTINUOUS
 10
344.28805199999999
 20
190.56484800000001
 30
0.0
 40
2.5
  1
60
 50
90.0
  7
MX_NOTE_STANDARD
  0
LINE
  5
8EF5
  8
SUNPO
  6
BYBLOCK
 10
315.78805199999988
 20
182.43984800000001
 30
0.0
 11
334.78805199999988
 21
182.43984800000001
 31
0.0
  0
ARC
  5
8EF8
  8
SUNPO
  6
BYBLOCK
 10
334.78805199999988
 20
182.43984800000001
 30
0.0
 40
0.145
 50
90.0
 51
270.0
  0
ARC
  5
8EF9
  8
SUNPO
  6
BYBLOCK
 10
334.78805199999988
 20
182.43984800000001
 30
0.0
 40
0.145
 50
270.0
 51
90.0
  0
ARC
  5
8EFB
  8
SUNPO
  6
BYBLOCK
 10
344.78805199999999
 20
162.43984800000001
 30
0.0
 40
0.145
 50
90.0
 51
270.0
  0
ARC
  5
8EFC
  8
SUNPO
  6
BYBLOCK
 10
344.78805199999999
 20
162.43984800000001
 30
0.0
 40
0.145
 50
270.0
 51
90.0
  0
LINE
  5
8EFD
  8
SUNPO
  6
BYBLOCK
 10
368.35694799999999
 20
173.20515199999991
 30
0.0
 11
368.35694799999999
 21
154.705152
 31
0.0
  0
ARC
  5
8EFF
  8
SUNPO
  6
BYBLOCK
 10
368.35694799999999
 20
154.705152
 30
0.0
 40
0.145
 50
0.0
 51
180.0
  0
ARC
  5
8F00
  8
SUNPO
  6
BYBLOCK
 10
368.35694799999999
 20
154.705152
 30
0.0
 40
0.145
 50
180.0
 51
0.0
  0
LINE
  5
8F01
  8
SUNPO
  6
BYBLOCK
 10
368.35694799999999
 20
173.20515199999991
 30
0.0
 11
368.35694799999999
 21
164.70515199999991
 31
0.0
  0
ARC
  5
8F03
  8
SUNPO
  6
BYBLOCK
 10
368.35694799999999
 20
164.70515199999991
 30
0.0
 40
0.145
 50
0.0
 51
180.0
  0
ARC
  5
8F04
  8
SUNPO
  6
BYBLOCK
 10
368.35694799999999
 20
164.70515199999991
 30
0.0
 40
0.145
 50
180.0
 51
0.0
  0
LINE
  5
8F07
  8
SUNPO
  6
BYBLOCK
 10
316.28805199999988
 20
222.43984800000001
 30
0.0
 11
344.78805199999999
 21
222.43984800000001
 31
0.0
  0
LINE
  5
8F08
  8
SUNPO
  6
CONTINUOUS
 10
344.78805199999999
 20
222.43984800000001
 30
0.0
 11
339.78805199999999
 21
227.43984800000001
 31
0.0
  0
LINE
  5
8F09
  8
SUNPO
  6
CONTINUOUS
 10
339.78805199999999
 20
227.43984800000001
 30
0.0
 11
349.78805199999988
 21
227.43984800000001
 31
0.0
  0
LINE
  5
8F0A
  8
SUNPO
  6
BYBLOCK
 10
324.78805199999988
 20
222.43984800000001
 30
0.0
 11
324.78805199999988
 21
208.4398479999999
 31
0.0
  0
ARC
  5
8F0B
  8
SUNPO
  6
BYBLOCK
 10
324.78805199999988
 20
208.4398479999999
 30
0.0
 40
0.145
 50
90.0
 51
270.0
  0
ARC
  5
8F0C
  8
SUNPO
  6
BYBLOCK
 10
324.78805199999988
 20
208.4398479999999
 30
0.0
 40
0.145
 50
270.0
 51
90.0
  0
LINE
  5
8F0D
  8
SUNPO
  6
BYBLOCK
 10
314.63805200000002
 20
208.4398479999999
 30
0.0
 11
324.78805199999988
 21
208.4398479999999
 31
0.0
  0
TEXT
  5
8F10
  8
SUNPO
  6
CONTINUOUS
 10
324.28805199999988
 20
213.77318099999999
 30
0.0
 40
2.5
  1
14
 50
90.0
  7
MX_NOTE_STANDARD
  0
TEXT
  5
8F11
  8
SUNPO
  6
CONTINUOUS
 10
334.28805199999999
 20
200.56484800000001
 30
0.0
 40
2.5
  1
40
 50
90.0
  7
MX_NOTE_STANDARD
  0
LINE
  5
8F12
  8
SUNPO
  6
BYBLOCK
 10
326.28805199999988
 20
222.43984800000001
 30
0.0
 11
334.78805199999988
 21
222.43984800000001
 31
0.0
  0
LINE
  5
8F13
  8
SUNPO
  6
BYBLOCK
 10
316.28805199999988
 20
222.43984800000001
 30
0.0
 11
324.78805199999988
 21
222.43984800000001
 31
0.0
  0
ARC
  5
8F17
  8
SUNPO
  6
BYBLOCK
 10
324.78805199999988
 20
222.43984800000001
 30
0.0
 40
0.145
 50
270.0
 51
90.0
  0
ARC
  5
8F18
  8
SUNPO
  6
BYBLOCK
 10
324.78805199999988
 20
222.43984800000001
 30
0.0
 40
0.145
 50
90.0
 51
270.0
  0
ARC
  5
8F19
  8
SUNPO
  6
BYBLOCK
 10
334.78805199999988
 20
222.43984800000001
 30
0.0
 40
0.145
 50
270.0
 51
90.0
  0
ARC
  5
8F1A
  8
SUNPO
  6
BYBLOCK
 10
334.78805199999988
 20
222.43984800000001
 30
0.0
 40
0.145
 50
90.0
 51
270.0
  0
LINE
  5
8F1C
  8
SUNPO
  6
CONTINUOUS
 10
349.78805199999988
 20
227.43984800000001
 30
0.0
 11
344.78805199999999
 21
222.43984800000001
 31
0.0
  0
LINE
  5
8F1F
  8
SUNPO
  6
CONTINUOUS
 10
403.35694799999987
 20
149.705152
 30
0.0
 11
398.35694799999987
 21
154.705152
 31
0.0
  0
LINE
  5
8F20
  8
SUNPO
  6
CONTINUOUS
 10
403.35694799999987
 20
159.70515199999991
 30
0.0
 11
403.35694799999987
 21
149.705152
 31
0.0
  0
LINE
  5
8F22
  8
SUNPO
  6
CONTINUOUS
 10
398.35694799999987
 20
154.705152
 30
0.0
 11
444.35694799999999
 21
154.705152
 31
0.0
  0
LINE
  5
8F23
  8
SUNPO
  6
BYBLOCK
 10
383.35694799999987
 20
174.3051529999999
 30
0.0
 11
383.35694799999987
 21
164.70515199999991
 31
0.0
  0
LINE
  5
8F24
  8
SUNPO
  6
BYBLOCK
 10
398.35694799999987
 20
164.70515199999991
 30
0.0
 11
383.35694799999987
 21
164.70515199999991
 31
0.0
  0
TEXT
  5
8F25
  8
SUNPO
  6
CONTINUOUS
 10
389.19028100000003
 20
165.205152
 30
0.0
 40
2.5
  1
15
  7
MX_NOTE_STANDARD
  0
TEXT
  5
8F26
  8
SUNPO
  6
CONTINUOUS
 10
381.48194799999999
 20
155.205152
 30
0.0
 40
2.5
  1
30
  7
MX_NOTE_STANDARD
  0
LINE
  5
8F27
  8
SUNPO
  6
BYBLOCK
 10
383.35694799999987
 20
173.20515199999991
 30
0.0
 11
383.35694799999987
 21
164.70515199999991
 31
0.0
  0
ARC
  5
8F29
  8
SUNPO
  6
BYBLOCK
 10
383.35694799999987
 20
164.70515199999991
 30
0.0
 40
0.145
 50
180.0
 51
0.0
  0
ARC
  5
8F2A
  8
SUNPO
  6
BYBLOCK
 10
383.35694799999987
 20
164.70515199999991
 30
0.0
 40
0.145
 50
0.0
 51
180.0
  0
ARC
  5
8F2B
  8
SUNPO
  6
BYBLOCK
 10
383.35694799999987
 20
164.70515199999991
 30
0.0
 40
0.145
 50
0.0
 51
180.0
  0
ARC
  5
8F2C
  8
SUNPO
  6
BYBLOCK
 10
383.35694799999987
 20
164.70515199999991
 30
0.0
 40
0.145
 50
180.0
 51
0.0
  0
LINE
  5
8F2D
  8
SUNPO
  6
BYBLOCK
 10
398.35694799999987
 20
173.20515199999991
 30
0.0
 11
398.35694799999987
 21
154.705152
 31
0.0
  0
LINE
  5
8F2E
  8
SUNPO
  6
CONTINUOUS
 10
398.35694799999987
 20
154.705152
 30
0.0
 11
403.35694799999987
 21
159.70515199999991
 31
0.0
  0
LINE
  5
8F31
  8
SUNPO
  6
BYBLOCK
 10
398.35694799999987
 20
173.20515199999991
 30
0.0
 11
398.35694799999987
 21
164.70515199999991
 31
0.0
  0
ARC
  5
8F32
  8
SUNPO
  6
BYBLOCK
 10
398.35694799999987
 20
164.70515199999991
 30
0.0
 40
0.145
 50
180.0
 51
0.0
  0
ARC
  5
8F33
  8
SUNPO
  6
BYBLOCK
 10
398.35694799999987
 20
164.70515199999991
 30
0.0
 40
0.145
 50
0.0
 51
180.0
  0
LINE
  5
8F38
  8
SUNPO
  6
CONTINUOUS
 10
461.89390700000001
 20
151.20515599999999
 30
0.0
 11
457.852462
 21
158.20514900000001
 31
0.0
  0
LINE
  5
8F39
  8
SUNPO
  6
CONTINUOUS
 10
459.58450699999997
 20
151.20515299999991
 30
0.0
 11
455.54306100000002
 21
158.20515
 31
0.0
  0
LINE
  5
8F3A
  8
SUNPO
  6
CONTINUOUS
 10
458.852462
 20
158.205152
 30
0.0
 11
454.54305999999991
 21
158.205152
 31
0.0
  0
LINE
  5
8F3B
  8
SUNPO
  6
CONTINUOUS
 10
453.233723
 20
151.20515299999991
 30
0.0
 11
449.19227799999999
 21
158.20514900000001
 31
0.0
  0
LINE
  5
8F3C
  8
SUNPO
  6
CONTINUOUS
 10
452.46328699999998
 20
158.205152
 30
0.0
 11
448.08793800000001
 21
158.205152
 31
0.0
  0
LINE
  5
8F3D
  8
SUNPO
  6
CONTINUOUS
 10
455.54306100000002
 20
151.20515199999991
 30
0.0
 11
451.50161600000001
 21
158.20514900000001
 31
0.0
  0
LINE
  5
8F3E
  8
SUNPO
  6
CONTINUOUS
 10
455.54306000000003
 20
158.205152
 30
0.0
 11
455.54306000000003
 21
151.20515299999991
 31
0.0
  0
LINE
  5
8F3F
  8
SUNPO
  6
CONTINUOUS
 10
456.54306000000003
 20
151.20515199999991
 30
0.0
 11
452.06552900000003
 21
151.20515199999991
 31
0.0
  0
LINE
  5
8F40
  8
SUNPO
  6
CONTINUOUS
 10
470.62595800000003
 20
153.205152
 30
0.0
 11
465.62595800000003
 21
153.205152
 31
0.0
  0
LINE
  5
8F41
  8
SUNPO
  6
CONTINUOUS
 10
470.62595800000003
 20
156.20515199999991
 30
0.0
 11
465.62595800000003
 21
156.20515199999991
 31
0.0
  0
LINE
  5
8F42
  8
SUNPO
  6
CONTINUOUS
 10
461.89390800000001
 20
158.205152
 30
0.0
 11
461.89390800000001
 21
151.20515499999991
 31
0.0
  0
LINE
  5
8F43
  8
SUNPO
  6
CONTINUOUS
 10
462.47125699999998
 20
151.20515199999991
 30
0.0
 11
458.89350899999988
 21
151.20515199999991
 31
0.0
  0
LINE
  5
8F45
  8
SUNPO
  6
CONTINUOUS
 10
462.85275300000001
 20
158.205152
 30
0.0
 11
460.8162319999999
 21
158.205152
 31
0.0
  0
ARC
  5
8F46
  8
SUNPO
  6
BYBLOCK
 10
463.35694799999999
 20
174.705152
 30
0.0
 40
0.145
 50
90.0
 51
270.0
  0
ARC
  5
8F47
  8
SUNPO
  6
BYBLOCK
 10
463.35694799999999
 20
174.705152
 30
0.0
 40
0.145
 50
270.0
 51
90.0
  0
TEXT
  5
8F49
  8
SUNPO
  6
CONTINUOUS
 10
462.85694799999999
 20
222.20515199999991
 30
0.0
 40
2.5
  1
100
 50
90.0
  7
MX_NOTE_STANDARD
  0
LINE
  5
8F4A
  8
SUNPO
  6
CONTINUOUS
 10
525.35694799999999
 20
154.705152
 30
0.0
 11
520.35694799999987
 21
149.705152
 31
0.0
  0
LINE
  5
8F4B
  8
SUNPO
  6
CONTINUOUS
 10
520.35694799999987
 20
149.705152
 30
0.0
 11
520.35694799999987
 21
159.70515199999991
 31
0.0
  0
LINE
  5
8F4D
  8
SUNPO
  6
BYBLOCK
 10
540.35694799999987
 20
164.70515199999991
 30
0.0
 11
525.35694799999999
 21
164.70515199999991
 31
0.0
  0
LINE
  5
8F4E
  8
SUNPO
  6
BYBLOCK
 10
555.35694799999999
 20
154.705152
 30
0.0
 11
525.35694799999999
 21
154.705152
 31
0.0
  0
TEXT
  5
8F4F
  8
SUNPO
  6
CONTINUOUS
 10
538.48194799999987
 20
155.205152
 30
0.0
 40
2.5
  1
30
  7
MX_NOTE_STANDARD
  0
LINE
  5
8F50
  8
SUNPO
  6
CONTINUOUS
 10
520.35694799999987
 20
159.70515199999991
 30
0.0
 11
525.35694799999999
 21
154.705152
 31
0.0
  0
LINE
  5
8F52
  8
SUNPO
  6
BYBLOCK
 10
525.35694799999999
 20
173.20515199999991
 30
0.0
 11
525.35694799999999
 21
154.705152
 31
0.0
  0
TEXT
  5
8F55
  8
SUNPO
  6
CONTINUOUS
 10
531.19028099999991
 20
165.205152
 30
0.0
 40
2.5
  1
15
  7
MX_NOTE_STANDARD
  0
LINE
  5
8F56
  8
SUNPO
  6
BYBLOCK
 10
525.35694799999999
 20
173.20515199999991
 30
0.0
 11
525.35694799999999
 21
164.70515199999991
 31
0.0
  0
ARC
  5
8F58
  8
SUNPO
  6
BYBLOCK
 10
525.35694799999999
 20
164.70515199999991
 30
0.0
 40
0.145
 50
0.0
 51
180.0
  0
ARC
  5
8F59
  8
SUNPO
  6
BYBLOCK
 10
525.35694799999999
 20
164.70515199999991
 30
0.0
 40
0.145
 50
180.0
 51
0.0
  0
LINE
  5
8F5C
  8
SUNPO
  6
BYBLOCK
 10
555.35694799999999
 20
173.20515199999991
 30
0.0
 11
555.35694799999999
 21
154.705152
 31
0.0
  0
ARC
  5
8F5D
  8
SUNPO
  6
BYBLOCK
 10
555.35694799999999
 20
154.705152
 30
0.0
 40
0.145
 50
180.0
 51
0.0
  0
ARC
  5
8F5E
  8
SUNPO
  6
BYBLOCK
 10
555.35694799999999
 20
154.705152
 30
0.0
 40
0.145
 50
0.0
 51
180.0
  0
LINE
  5
8F5F
  8
SUNPO
  6
BYBLOCK
 10
555.35694799999999
 20
164.70515199999991
 30
0.0
 11
540.35694799999987
 21
164.70515199999991
 31
0.0
  0
TEXT
  5
8F60
  8
SUNPO
  6
CONTINUOUS
 10
546.1902809999998
 20
165.205152
 30
0.0
 40
2.5
  1
15
  7
MX_NOTE_STANDARD
  0
LINE
  5
8F61
  8
SUNPO
  6
BYBLOCK
 10
540.35694799999987
 20
173.20515199999991
 30
0.0
 11
540.35694799999987
 21
164.70515199999991
 31
0.0
  0
LINE
  5
8F62
  8
SUNPO
  6
BYBLOCK
 10
540.35694799999987
 20
173.20515199999991
 30
0.0
 11
540.35694799999987
 21
164.70515199999991
 31
0.0
  0
ARC
  5
8F64
  8
SUNPO
  6
BYBLOCK
 10
540.35694799999987
 20
164.70515199999991
 30
0.0
 40
0.145
 50
180.0
 51
0.0
  0
ARC
  5
8F65
  8
SUNPO
  6
BYBLOCK
 10
540.35694799999987
 20
164.70515199999991
 30
0.0
 40
0.145
 50
0.0
 51
180.0
  0
ARC
  5
8F66
  8
SUNPO
  6
BYBLOCK
 10
540.35694799999987
 20
164.70515199999991
 30
0.0
 40
0.145
 50
0.0
 51
180.0
  0
ARC
  5
8F67
  8
SUNPO
  6
BYBLOCK
 10
540.35694799999987
 20
164.70515199999991
 30
0.0
 40
0.145
 50
180.0
 51
0.0
  0
LINE
  5
8F68
  8
SUNPO
  6
BYBLOCK
 10
555.35694799999999
 20
173.20515199999991
 30
0.0
 11
555.35694799999999
 21
164.70515199999991
 31
0.0
  0
ARC
  5
8F69
  8
SUNPO
  6
BYBLOCK
 10
555.35694799999999
 20
164.70515199999991
 30
0.0
 40
0.145
 50
180.0
 51
0.0
  0
ARC
  5
8F6A
  8
SUNPO
  6
BYBLOCK
 10
555.35694799999999
 20
164.70515199999991
 30
0.0
 40
0.145
 50
0.0
 51
180.0
  0
LINE
  5
8F6F
  8
SUNPO
  6
BYBLOCK
 10
508.35694799999999
 20
274.70515199999988
 30
0.0
 11
463.35694799999999
 21
274.70515199999988
 31
0.0
  0
LINE
  5
8F70
  8
SUNPO
  6
BYBLOCK
 10
508.35694799999999
 20
274.70515199999988
 30
0.0
 11
463.35694799999999
 21
274.70515199999988
 31
0.0
  0
LINE
  5
8F71
  8
SUNPO
  6
BYBLOCK
 10
314.78805199999999
 20
264.93984799999993
 30
0.0
 11
214.78805199999999
 21
264.93984799999993
 31
0.0
  0
LINE
  5
8F72
  8
DANMEN
  6
CONTINUOUS
 10
497.85693300000003
 20
257.205152
 30
0.0
 11
540.35694799999987
 21
257.205152
 31
0.0
  0
LINE
  5
8F73
  8
DANMEN
  6
CONTINUOUS
 10
497.85693300000003
 20
254.205152
 30
0.0
 11
540.35694799999987
 21
254.205152
 31
0.0
  0
LINE
  5
8F74
  8
DANMEN
  6
CONTINUOUS
 10
525.35694799999999
 20
274.70515199999988
 30
0.0
 11
509.85694799999999
 21
274.70515199999988
 31
0.0
  0
LINE
  5
8F75
  8
DANMEN
  6
CONTINUOUS
 10
463.35694799999999
 20
267.705152
 30
0.0
 11
540.35694799999987
 21
267.705152
 31
0.0
  0
LINE
  5
8F76
  8
DANMEN
  6
CONTINUOUS
 10
463.35694799999999
 20
257.70515199999988
 30
0.0
 11
540.35694799999987
 21
257.70515199999988
 31
0.0
  0
LINE
  5
8F77
  8
DANMEN
  6
CONTINUOUS
 10
383.35694799999987
 20
267.705152
 30
0.0
 11
460.35694799999999
 21
267.705152
 31
0.0
  0
LINE
  5
8F78
  8
DANMEN
  6
CONTINUOUS
 10
383.35694799999987
 20
257.70515199999988
 30
0.0
 11
460.35694799999999
 21
257.70515199999988
 31
0.0
  0
LINE
  5
8F79
  8
DANMEN
  6
CONTINUOUS
 10
413.85694799999999
 20
257.205152
 30
0.0
 11
460.35694799999999
 21
257.205152
 31
0.0
  0
LINE
  5
8F7A
  8
DANMEN
  6
CONTINUOUS
 10
413.85694799999999
 20
254.205152
 30
0.0
 11
460.35694799999999
 21
254.205152
 31
0.0
  0
LINE
  5
8F7B
  8
DANMEN
  6
CONTINUOUS
 10
413.85694799999999
 20
273.505156
 30
0.0
 11
460.35694799999999
 21
273.505156
 31
0.0
  0
LINE
  5
8F7C
  8
DANMEN
  6
CONTINUOUS
 10
413.85694799999999
 20
276.50515599999989
 30
0.0
 11
460.35694799999999
 21
276.50515599999989
 31
0.0
  0
LINE
  5
8F7D
  8
DANMEN
  6
CONTINUOUS
 10
413.85694799999999
 20
277.705152
 30
0.0
 11
460.35694799999999
 21
277.705152
 31
0.0
  0
LINE
  5
8F7E
  8
DANMEN
  6
CONTINUOUS
 10
418.14823699999999
 20
257.205152
 30
0.0
 11
413.85694799999999
 21
257.205152
 31
0.0
  0
LINE
  5
8F7F
  8
DANMEN
  6
CONTINUOUS
 10
418.14823699999999
 20
254.205152
 30
0.0
 11
413.85694799999999
 21
254.205152
 31
0.0
  0
LINE
  5
8F80
  8
DANMEN
  6
CONTINUOUS
 10
383.35694799999987
 20
273.60515199999992
 30
0.0
 11
383.35694799999987
 21
255.00515200000001
 31
0.0
  0
ARC
  5
8F81
  8
DANMEN
  6
CONTINUOUS
 10
388.580445
 20
255.50515200000001
 30
0.0
 40
0.5
 50
270.0
 51
24.443954999999999
  0
ARC
  5
8F82
  8
DANMEN
  6
CONTINUOUS
 10
393.35694799999999
 20
255.052279
 30
0.0
 40
1.0
 50
279.46232199999997
 51
0.0
  0
LINE
  5
8F83
  8
DANMEN
  6
CONTINUOUS
 10
388.43858299999988
 20
253.21875799999989
 30
0.0
 11
393.52134599999988
 21
254.06588500000001
 31
0.0
  0
LINE
  5
8F84
  8
DANMEN
  6
CONTINUOUS
 10
383.35694799999987
 20
253.205152
 30
0.0
 11
388.27418399999988
 21
253.205152
 31
0.0
  0
ARC
  5
8F88
  8
DANMEN
  6
CONTINUOUS
 10
388.27418399999988
 20
254.205152
 30
0.0
 40
1.0
 50
270.0
 51
279.46232199999997
  0
LINE
  5
8F8B
  8
DANMEN
  6
CONTINUOUS
 10
389.28268800000001
 20
257.050862
 30
0.0
 11
393.52134599999988
 21
256.34441900000002
 31
0.0
  0
LINE
  5
8F8C
  8
DANMEN
  6
CONTINUOUS
 10
383.35694799999987
 20
255.00515200000001
 30
0.0
 11
388.580445
 21
255.00515200000001
 31
0.0
  0
ARC
  5
8F93
  8
DANMEN
  6
CONTINUOUS
 10
389.20048899999989
 20
256.55766499999999
 30
0.0
 40
0.5
 50
80.537678000000014
 51
204.44395499999999
  0
LINE
  5
8F94
  8
DANMEN
  6
CONTINUOUS
 10
388.74530499999992
 20
256.35076299999992
 30
0.0
 11
389.03562799999992
 21
255.71205299999991
 31
0.0
  0
ARC
  5
8F97
  8
DANMEN
  6
CONTINUOUS
 10
393.35694799999999
 20
255.35802499999991
 30
0.0
 40
1.0
 50
0.0
 51
80.537678000000014
  0
LINE
  5
8F98
  8
DANMEN
  6
CONTINUOUS
 10
394.35694799999987
 20
255.35802499999991
 30
0.0
 11
394.35694799999987
 21
255.052279
 31
0.0
  0
LINE
  5
8F99
  8
DANMEN
  6
CONTINUOUS
 10
413.85694799999999
 20
257.205152
 30
0.0
 11
413.85694799999999
 21
254.205152
 31
0.0
  0
LINE
  5
8F9D
  8
DANMEN
  6
CONTINUOUS
 10
397.85694799999987
 20
274.70515199999988
 30
0.0
 11
413.85694799999999
 21
274.70515199999988
 31
0.0
  0
LINE
  5
8F9E
  8
DANMEN
  6
CONTINUOUS
 10
388.35694799999987
 20
273.05515200000002
 30
0.0
 11
397.85694799999987
 21
273.05515200000002
 31
0.0
  0
LINE
  5
8F9F
  8
DANMEN
  6
CONTINUOUS
 10
388.35694799999987
 20
273.05515200000002
 30
0.0
 11
388.35694799999987
 21
272.20515199999988
 31
0.0
  0
LINE
  5
8FA0
  8
DANMEN
  6
CONTINUOUS
 10
387.35694799999999
 20
273.05515200000002
 30
0.0
 11
387.35694799999999
 21
271.705152
 31
0.0
  0
ARC
  5
8FA2
  8
DANMEN
  6
CONTINUOUS
 10
387.85694799999987
 20
272.20515199999988
 30
0.0
 40
0.5
 50
270.0
 51
0.0
  0
LINE
  5
8FA4
  8
DANMEN
  6
CONTINUOUS
 10
387.35694799999999
 20
271.705152
 30
0.0
 11
387.85694799999987
 21
271.705152
 31
0.0
  0
LINE
  5
8FA5
  8
DANMEN
  6
CONTINUOUS
 10
385.35694799999987
 20
273.05515200000002
 30
0.0
 11
387.35694799999999
 21
273.05515200000002
 31
0.0
  0
LINE
  5
8FA9
  8
DANMEN
  6
CONTINUOUS
 10
383.35694799999987
 20
273.60515199999992
 30
0.0
 11
385.35694799999987
 21
273.60515199999992
 31
0.0
  0
LINE
  5
8FAA
  8
DANMEN
  6
CONTINUOUS
 10
385.35694799999987
 20
273.60515199999992
 30
0.0
 11
385.35694799999987
 21
273.05515200000002
 31
0.0
  0
ARC
  5
8FAE
  8
DANMEN
  6
CONTINUOUS
 10
397.85694799999987
 20
273.55515200000002
 30
0.0
 40
0.5
 50
270.0
 51
0.0
  0
ARC
  5
8FB0
  8
DANMEN
  6
CONTINUOUS
 10
397.85694799999987
 20
274.20515199999988
 30
0.0
 40
0.5
 50
0.0
 51
90.0
  0
LINE
  5
8FB1
  8
DANMEN
  6
CONTINUOUS
 10
398.35694799999987
 20
274.20515199999988
 30
0.0
 11
398.35694799999987
 21
273.55515200000002
 31
0.0
  0
LINE
  5
8FB2
  8
DANMEN
  6
CONTINUOUS
 10
413.85694799999999
 20
277.705152
 30
0.0
 11
413.85694799999999
 21
273.505156
 31
0.0
  0
ARC
  5
8FB3
  8
DANMEN
  6
CONTINUOUS
 10
415.85694799999987
 20
255.70515199999991
 30
0.0
 40
3.0
 50
336.42184199999991
 51
23.578178000000001
  0
ARC
  5
8FB4
  8
DANMEN
  6
CONTINUOUS
 10
418.14823699999999
 20
254.705152
 30
0.0
 40
0.5
 50
270.000291
 51
336.42195099999992
  0
ARC
  5
8FB8
  8
DANMEN
  6
CONTINUOUS
 10
418.14823699999999
 20
256.705152
 30
0.0
 40
0.5
 50
23.578068999999989
 51
89.999763000000002
  0
ARC
  5
8FBB
  8
DANMEN
  6
CONTINUOUS
 10
418.25694099999998
 20
277.10514599999988
 30
0.0
 40
0.6
 50
270.0000179999999
 51
90.000037000000006
  0
LINE
  5
8FBC
  8
DANMEN
  6
CONTINUOUS
 10
463.35694799999999
 20
257.205152
 30
0.0
 11
482.35693199999997
 21
257.205152
 31
0.0
  0
LINE
  5
8FBD
  8
DANMEN
  6
CONTINUOUS
 10
463.35694799999999
 20
254.205152
 30
0.0
 11
482.35693199999997
 21
254.205152
 31
0.0
  0
LINE
  5
8FBE
  8
DANMEN
  6
CONTINUOUS
 10
509.85694799999999
 20
277.705152
 30
0.0
 11
463.35694799999999
 21
277.705152
 31
0.0
  0
LINE
  5
8FBF
  8
DANMEN
  6
CONTINUOUS
 10
509.85694799999999
 20
276.50515599999989
 30
0.0
 11
463.35694799999999
 21
276.50515599999989
 31
0.0
  0
LINE
  5
8FC0
  8
DANMEN
  6
CONTINUOUS
 10
509.85694799999999
 20
273.505156
 30
0.0
 11
463.35694799999999
 21
273.505156
 31
0.0
  0
LINE
  5
8FC1
  8
DANMEN
  6
CONTINUOUS
 10
478.06564199999991
 20
257.205152
 30
0.0
 11
482.35693199999997
 21
257.205152
 31
0.0
  0
LINE
  5
8FC2
  8
DANMEN
  6
CONTINUOUS
 10
478.06564199999991
 20
254.205152
 30
0.0
 11
482.35693199999997
 21
254.205152
 31
0.0
  0
ARC
  5
8FC3
  8
DANMEN
  6
CONTINUOUS
 10
480.35693300000003
 20
255.70515199999991
 30
0.0
 40
3.0
 50
156.42182199999991
 51
203.578158
  0
ARC
  5
8FC4
  8
DANMEN
  6
CONTINUOUS
 10
478.06564199999991
 20
254.705152
 30
0.0
 40
0.5
 50
203.57804899999999
 51
269.999709
  0
ARC
  5
8FC8
  8
DANMEN
  6
CONTINUOUS
 10
478.06564199999991
 20
256.705152
 30
0.0
 40
0.5
 50
90.000236999999984
 51
156.421931
  0
LINE
  5
8FCB
  8
DANMEN
  6
CONTINUOUS
 10
482.35693199999997
 20
257.205152
 30
0.0
 11
482.35693199999997
 21
254.205152
 31
0.0
  0
LINE
  5
8FCF
  8
DANMEN
  6
CONTINUOUS
 10
497.85693300000003
 20
254.205152
 30
0.0
 11
497.85693300000003
 21
257.205152
 31
0.0
  0
ARC
  5
8FD0
  8
DANMEN
  6
CONTINUOUS
 10
505.456953
 20
277.10514599999988
 30
0.0
 40
0.6
 50
89.999962999999994
 51
269.99998199999987
  0
LINE
  5
8FD1
  8
DANMEN
  6
CONTINUOUS
 10
509.85694799999999
 20
277.705152
 30
0.0
 11
509.85694799999999
 21
273.505156
 31
0.0
  0
LINE
  5
8FD2
  8
SUNPO
  6
BYBLOCK
 10
204.78805199999999
 20
310.43984799999993
 30
0.0
 11
204.78805199999999
 21
345.43984799999998
 31
0.0
  0
LINE
  5
8FD3
  8
DANMEN
  6
CONTINUOUS
 10
542.00694699999985
 20
273.05515200000002
 30
0.0
 11
553.70694700000001
 21
273.05515200000002
 31
0.0
  0
LINE
  5
8FD4
  8
DANMEN
  6
CONTINUOUS
 10
525.85694799999999
 20
274.70515199999988
 30
0.0
 11
554.85694799999999
 21
274.70515199999988
 31
0.0
  0
LINE
  5
8FD5
  8
DANMEN
  6
CONTINUOUS
 10
525.85694799999999
 20
273.05515200000002
 30
0.0
 11
538.35694799999999
 21
273.05515200000002
 31
0.0
  0
ARC
  5
8FD6
  8
DANMEN
  6
CONTINUOUS
 10
525.85694799999999
 20
273.55515200000002
 30
0.0
 40
0.5
 50
180.0
 51
270.0
  0
ARC
  5
8FD7
  8
DANMEN
  6
CONTINUOUS
 10
525.85694799999999
 20
274.20515199999988
 30
0.0
 40
0.5
 50
90.0
 51
180.0
  0
LINE
  5
8FDA
  8
DANMEN
  6
CONTINUOUS
 10
525.35694799999999
 20
274.20515199999988
 30
0.0
 11
525.35694799999999
 21
273.55515200000002
 31
0.0
  0
LINE
  5
8FDE
  8
DANMEN
  6
CONTINUOUS
 10
538.35694799999999
 20
273.60515199999992
 30
0.0
 11
540.35694799999987
 21
273.60515199999992
 31
0.0
  0
LINE
  5
8FDF
  8
DANMEN
  6
CONTINUOUS
 10
538.35694799999999
 20
273.60515199999992
 30
0.0
 11
538.35694799999999
 21
273.05515200000002
 31
0.0
  0
LINE
  5
8FE1
  8
DANMEN
  6
CONTINUOUS
 10
554.20694700000001
 20
268.705152
 30
0.0
 11
554.85694799999999
 21
268.705152
 31
0.0
  0
LINE
  5
8FE2
  8
DANMEN
  6
CONTINUOUS
 10
553.70694700000001
 20
273.05515200000002
 30
0.0
 11
553.70694700000001
 21
269.205152
 31
0.0
  0
ARC
  5
8FE4
  8
DANMEN
  6
CONTINUOUS
 10
554.20694700000001
 20
269.205152
 30
0.0
 40
0.5
 50
180.0
 51
270.0
  0
LINE
  5
8FE6
  8
DANMEN
  6
CONTINUOUS
 10
555.35694799999999
 20
274.20515199999988
 30
0.0
 11
555.35694799999999
 21
269.205152
 31
0.0
  0
ARC
  5
8FE8
  8
DANMEN
  6
CONTINUOUS
 10
554.85694799999999
 20
269.205152
 30
0.0
 40
0.5
 50
270.0
 51
0.0
  0
ARC
  5
8FEA
  8
DANMEN
  6
CONTINUOUS
 10
554.85694799999999
 20
274.20515199999988
 30
0.0
 40
0.5
 50
0.0
 51
90.0
  0
LINE
  5
8FEB
  8
SUNPO
  6
BYBLOCK
 10
211.78805199999991
 20
264.93984799999993
 30
0.0
 11
214.78805199999999
 21
264.93984799999993
 31
0.0
  0
ARC
  5
8FEC
  8
SUNPO
  6
BYBLOCK
 10
211.78805199999991
 20
264.93984799999993
 30
0.0
 40
0.145
 50
0.0
 51
180.0
  0
ARC
  5
8FED
  8
SUNPO
  6
BYBLOCK
 10
211.78805199999991
 20
264.93984799999993
 30
0.0
 40
0.145
 50
180.0
 51
0.0
  0
TEXT
  5
8FEE
  8
SUNPO
  6
CONTINUOUS
 10
212.4547189999999
 20
265.43984799999993
 30
0.0
 40
2.5
  1
3
  7
MX_NOTE_STANDARD
  0
ARC
  5
8FF3
  8
SUNPO
  6
BYBLOCK
 10
214.78805199999999
 20
264.93984799999993
 30
0.0
 40
0.145
 50
180.0
 51
0.0
  0
ARC
  5
8FF4
  8
SUNPO
  6
BYBLOCK
 10
214.78805199999999
 20
264.93984799999993
 30
0.0
 40
0.145
 50
0.0
 51
180.0
  0
ARC
  5
8FF5
  8
SUNPO
  6
BYBLOCK
 10
214.78805199999999
 20
264.93984799999993
 30
0.0
 40
0.145
 50
0.0
 51
180.0
  0
ARC
  5
8FF6
  8
SUNPO
  6
BYBLOCK
 10
214.78805199999999
 20
264.93984799999993
 30
0.0
 40
0.145
 50
180.0
 51
0.0
  0
LINE
  5
8FF7
  8
SUNPO
  6
BYBLOCK
 10
213.28805199999999
 20
310.43984799999993
 30
0.0
 11
204.78805199999999
 21
310.43984799999993
 31
0.0
  0
ARC
  5
8FF8
  8
SUNPO
  6
BYBLOCK
 10
204.78805199999999
 20
310.43984799999993
 30
0.0
 40
0.145
 50
90.0
 51
270.0
  0
ARC
  5
8FF9
  8
SUNPO
  6
BYBLOCK
 10
204.78805199999999
 20
310.43984799999993
 30
0.0
 40
0.145
 50
270.0
 51
90.0
  0
TEXT
  5
8FFA
  8
SUNPO
  6
CONTINUOUS
 10
204.28805199999991
 20
325.85651499999989
 30
0.0
 40
2.5
  1
35
 50
90.0
  7
MX_NOTE_STANDARD
  0
LINE
  5
8FFC
  8
SUNPO
  6
BYBLOCK
 10
213.28805199999999
 20
345.43984799999998
 30
0.0
 11
204.78805199999999
 21
345.43984799999998
 31
0.0
  0
ARC
  5
8FFE
  8
SUNPO
  6
BYBLOCK
 10
204.78805199999999
 20
345.43984799999998
 30
0.0
 40
0.145
 50
270.0
 51
90.0
  0
ARC
  5
8FFF
  8
SUNPO
  6
BYBLOCK
 10
204.78805199999999
 20
345.43984799999998
 30
0.0
 40
0.145
 50
90.0
 51
270.0
  0
LINE
  5
9001
  8
SUNPO
  6
BYBLOCK
 10
368.35694799999999
 20
284.70515199999988
 30
0.0
 11
398.35694799999987
 21
284.70515199999988
 31
0.0
  0
LINE
  5
9002
  8
SUNPO
  6
BYBLOCK
 10
344.78805199999999
 20
345.43984799999998
 30
0.0
 11
344.78805199999999
 21
310.43984799999993
 31
0.0
  0
TEXT
  5
9003
  8
SUNPO
  6
CONTINUOUS
 10
262.28805199999988
 20
265.43984799999993
 30
0.0
 40
2.5
  1
100
  7
MX_NOTE_STANDARD
  0
LINE
  5
9004
  8
SUNPO
  6
CONTINUOUS
 10
344.78805199999999
 20
310.43984799999993
 30
0.0
 11
344.78805199999999
 21
276.783568
 31
0.0
  0
LINE
  5
9005
  8
SUNPO
  6
CONTINUOUS
 10
340.78805199999988
 20
261.580893
 30
0.0
 11
348.78805199999999
 21
261.580893
 31
0.0
  0
LINE
  5
9006
  8
SUNPO
  6
CONTINUOUS
 10
340.78805199999988
 20
267.080893
 30
0.0
 11
348.78805199999999
 21
267.080893
 31
0.0
  0
LINE
  5
9007
  8
SUNPO
  6
CONTINUOUS
 10
340.78805199999988
 20
259.580893
 30
0.0
 11
348.78805199999999
 21
259.580893
 31
0.0
  0
LINE
  5
9008
  8
SUNPO
  6
CONTINUOUS
 10
340.78805199999988
 20
269.09383899999989
 30
0.0
 11
340.78805199999988
 21
265.360792
 31
0.0
  0
ARC
  5
900A
  8
SUNPO
  6
BYBLOCK
 10
314.78805199999999
 20
264.93984799999993
 30
0.0
 40
0.145
 50
180.0
 51
0.0
  0
ARC
  5
900B
  8
SUNPO
  6
BYBLOCK
 10
314.78805199999999
 20
264.93984799999993
 30
0.0
 40
0.145
 50
0.0
 51
180.0
  0
LINE
  5
900C
  8
SUNPO
  6
CONTINUOUS
 10
340.78805199999988
 20
262.980887
 30
0.0
 11
340.78805199999988
 21
257.78354400000001
 31
0.0
  0
LINE
  5
900D
  8
SUNPO
  6
CONTINUOUS
 10
344.78805199999999
 20
267.080893
 30
0.0
 11
344.78805199999999
 21
261.580893
 31
0.0
  0
LINE
  5
900E
  8
SUNPO
  6
CONTINUOUS
 10
348.78805199999999
 20
269.09383899999989
 30
0.0
 11
348.78805199999999
 21
265.360792
 31
0.0
  0
LINE
  5
900F
  8
SUNPO
  6
CONTINUOUS
 10
348.78805199999999
 20
262.980887
 30
0.0
 11
348.78805199999999
 21
257.78354400000001
 31
0.0
  0
LINE
  5
9011
  8
SUNPO
  6
CONTINUOUS
 10
343.58797900000002
 20
275.09615200000002
 30
0.0
 11
343.58797900000002
 21
270.3076089999999
 31
0.0
  0
LINE
  5
9012
  8
SUNPO
  6
CONTINUOUS
 10
345.98797400000001
 20
275.09615200000002
 30
0.0
 11
345.98797400000001
 21
270.3076089999999
 31
0.0
  0
LINE
  5
9013
  8
SUNPO
  6
BYBLOCK
 10
368.35694799999999
 20
276.20515199999988
 30
0.0
 11
368.35694799999999
 21
284.70515199999988
 31
0.0
  0
ARC
  5
9015
  8
SUNPO
  6
BYBLOCK
 10
368.35694799999999
 20
284.70515199999988
 30
0.0
 40
0.145
 50
0.0
 51
180.0
  0
ARC
  5
9016
  8
SUNPO
  6
BYBLOCK
 10
368.35694799999999
 20
284.70515199999988
 30
0.0
 40
0.145
 50
180.0
 51
0.0
  0
LINE
  5
9017
  8
SUNPO
  6
BYBLOCK
 10
316.28805199999988
 20
310.43984799999993
 30
0.0
 11
344.78805199999999
 21
310.43984799999993
 31
0.0
  0
LINE
  5
9018
  8
SUNPO
  6
CONTINUOUS
 10
339.78805199999999
 20
305.43984799999993
 30
0.0
 11
344.78805199999999
 21
310.43984799999993
 31
0.0
  0
LINE
  5
9019
  8
SUNPO
  6
CONTINUOUS
 10
349.78805199999988
 20
305.43984799999993
 30
0.0
 11
339.78805199999999
 21
305.43984799999993
 31
0.0
  0
TEXT
  5
901A
  8
SUNPO
  6
CONTINUOUS
 10
344.28805199999999
 20
325.85651499999989
 30
0.0
 40
2.5
  1
35
 50
90.0
  7
MX_NOTE_STANDARD
  0
LINE
  5
901D
  8
SUNPO
  6
CONTINUOUS
 10
344.78805199999999
 20
310.43984799999993
 30
0.0
 11
349.78805199999988
 21
305.43984799999993
 31
0.0
  0
LINE
  5
9021
  8
SUNPO
  6
BYBLOCK
 10
316.28805199999988
 20
345.43984799999998
 30
0.0
 11
344.78805199999999
 21
345.43984799999998
 31
0.0
  0
ARC
  5
9023
  8
SUNPO
  6
BYBLOCK
 10
344.78805199999999
 20
345.43984799999998
 30
0.0
 40
0.145
 50
270.0
 51
90.0
  0
ARC
  5
9024
  8
SUNPO
  6
BYBLOCK
 10
344.78805199999999
 20
345.43984799999998
 30
0.0
 40
0.145
 50
90.0
 51
270.0
  0
TEXT
  5
9025
  8
SUNPO
  6
CONTINUOUS
 10
381.48194799999999
 20
285.20515199999988
 30
0.0
 40
2.5
  1
30
  7
MX_NOTE_STANDARD
  0
LINE
  5
9026
  8
SUNPO
  6
BYBLOCK
 10
398.35694799999987
 20
276.20515199999988
 30
0.0
 11
398.35694799999987
 21
284.70515199999988
 31
0.0
  0
ARC
  5
9029
  8
SUNPO
  6
BYBLOCK
 10
398.35694799999987
 20
284.70515199999988
 30
0.0
 40
0.145
 50
180.0
 51
0.0
  0
ARC
  5
902A
  8
SUNPO
  6
BYBLOCK
 10
398.35694799999987
 20
284.70515199999988
 30
0.0
 40
0.145
 50
0.0
 51
180.0
  0
LINE
  5
902B
  8
SUNPO
  6
BYBLOCK
 10
463.35694799999999
 20
277.705152
 30
0.0
 11
463.35694799999999
 21
280.820448
 31
0.0
  0
LINE
  5
902D
  8
SUNPO
  6
BYBLOCK
 10
463.35694799999999
 20
274.70515199999988
 30
0.0
 11
463.35694799999999
 21
277.705152
 31
0.0
  0
ARC
  5
902F
  8
SUNPO
  6
BYBLOCK
 10
463.35694799999999
 20
274.70515199999988
 30
0.0
 40
0.145
 50
270.0
 51
90.0
  0
ARC
  5
9030
  8
SUNPO
  6
BYBLOCK
 10
463.35694799999999
 20
274.70515199999988
 30
0.0
 40
0.145
 50
90.0
 51
270.0
  0
ARC
  5
9031
  8
SUNPO
  6
BYBLOCK
 10
463.35694799999999
 20
274.70515199999988
 30
0.0
 40
0.145
 50
90.0
 51
270.0
  0
ARC
  5
9032
  8
SUNPO
  6
BYBLOCK
 10
463.35694799999999
 20
274.70515199999988
 30
0.0
 40
0.145
 50
270.0
 51
90.0
  0
ARC
  5
9033
  8
SUNPO
  6
BYBLOCK
 10
463.35694799999999
 20
277.705152
 30
0.0
 40
0.145
 50
270.0
 51
90.0
  0
ARC
  5
9034
  8
SUNPO
  6
BYBLOCK
 10
463.35694799999999
 20
277.705152
 30
0.0
 40
0.145
 50
90.0
 51
270.0
  0
TEXT
  5
9035
  8
SUNPO
  6
CONTINUOUS
 10
462.85694799999999
 20
278.73711500000002
 30
0.0
 40
2.5
  1
3
 50
90.0
  7
MX_NOTE_STANDARD
  0
LINE
  5
9037
  8
SUNPO
  6
BYBLOCK
 10
525.35694799999999
 20
284.70515199999988
 30
0.0
 11
555.35694799999999
 21
284.70515199999988
 31
0.0
  0
TEXT
  5
9038
  8
SUNPO
  6
CONTINUOUS
 10
538.48194799999987
 20
285.20515199999988
 30
0.0
 40
2.5
  1
30
  7
MX_NOTE_STANDARD
  0
LINE
  5
903B
  8
SUNPO
  6
BYBLOCK
 10
525.35694799999999
 20
276.20515199999988
 30
0.0
 11
525.35694799999999
 21
284.70515199999988
 31
0.0
  0
ARC
  5
903D
  8
SUNPO
  6
BYBLOCK
 10
525.35694799999999
 20
284.70515199999988
 30
0.0
 40
0.145
 50
0.0
 51
180.0
  0
ARC
  5
903E
  8
SUNPO
  6
BYBLOCK
 10
525.35694799999999
 20
284.70515199999988
 30
0.0
 40
0.145
 50
180.0
 51
0.0
  0
LINE
  5
903F
  8
SUNPO
  6
BYBLOCK
 10
555.35694799999999
 20
276.20515199999988
 30
0.0
 11
555.35694799999999
 21
284.70515199999988
 31
0.0
  0
ARC
  5
9042
  8
SUNPO
  6
BYBLOCK
 10
555.35694799999999
 20
284.70515199999988
 30
0.0
 40
0.145
 50
180.0
 51
0.0
  0
ARC
  5
9043
  8
SUNPO
  6
BYBLOCK
 10
555.35694799999999
 20
284.70515199999988
 30
0.0
 40
0.145
 50
0.0
 51
180.0
  0
ENDSEC
  0
EOF
