  0
SECTION
  2
HEADER
  9
$ACADVER
  1
AC1009
  9
$INSBASE
 10
0.0
 20
0.0
 30
0.0
  9
$EXTMIN
 10
4.9614735792588363
 20
4.950294805726343
 30
-0.0015258207003583
  9
$EXTMAX
 10
755.00000803003968
 20
505.0000052959972
 30
0.0000000349246037
  9
$LIMMIN
 10
-210.0
 20
-148.5
  9
$LIMMAX
 10
210.0
 20
148.5
  9
$ORTHOMODE
 70
     0
  9
$REGENMODE
 70
     1
  9
$FILLMODE
 70
     1
  9
$QTEXTMODE
 70
     0
  9
$MIRRTEXT
 70
     1
  9
$DRAGMODE
 70
     2
  9
$LTSCALE
 40
0.5
  9
$OSMODE
 70
  3071
  9
$ATTMODE
 70
     1
  9
$TEXTSIZE
 40
0.2
  9
$TRACEWID
 40
0.05
  9
$TEXTSTYLE
  7
STANDARD
  9
$CLAYER
  8
0
  9
$CELTYPE
  6
CONTINUOUS
  9
$CECOLOR
 62
   256
  9
$DIMSCALE
 40
1.0
  9
$DIMASZ
 40
2.319999999999999
  9
$DIMEXO
 40
1.5
  9
$DIMDLI
 40
3.75
  9
$DIMRND
 40
0.0
  9
$DIMDLE
 40
0.0
  9
$DIMEXE
 40
0.0
  9
$DIMTP
 40
0.0
  9
$DIMTM
 40
0.0
  9
$DIMTXT
 40
2.5
  9
$DIMCEN
 40
2.5
  9
$DIMTSZ
 40
0.0
  9
$DIMTOL
 70
     0
  9
$DIMLIM
 70
     0
  9
$DIMTIH
 70
     0
  9
$DIMTOH
 70
     0
  9
$DIMSE1
 70
     1
  9
$DIMSE2
 70
     1
  9
$DIMTAD
 70
     1
  9
$DIMZIN
 70
     0
  9
$DIMBLK
  1

  9
$DIMASO
 70
     1
  9
$DIMSHO
 70
     1
  9
$DIMPOST
  1

  9
$DIMAPOST
  1

  9
$DIMALT
 70
     0
  9
$DIMALTD
 70
     4
  9
$DIMALTF
 40
0.0394
  9
$DIMLFAC
 40
1.0
  9
$DIMTOFL
 70
     1
  9
$DIMTVP
 40
0.0
  9
$DIMTIX
 70
     0
  9
$DIMSOXD
 70
     0
  9
$DIMSAH
 70
     1
  9
$DIMBLK1
  1

  9
$DIMBLK2
  1

  9
$DIMSTYLE
  2
MXDIMSTYLE
  9
$DIMCLRD
 70
     0
  9
$DIMCLRE
 70
     0
  9
$DIMCLRT
 70
     0
  9
$DIMTFAC
 40
1.0
  9
$DIMGAP
 40
1.0
  9
$LUNITS
 70
     2
  9
$LUPREC
 70
     4
  9
$SKETCHINC
 40
0.1
  9
$FILLETRAD
 40
0.0
  9
$AUNITS
 70
     0
  9
$AUPREC
 70
     0
  9
$MENU
  1
acad
  9
$ELEVATION
 40
0.0
  9
$PELEVATION
 40
0.0
  9
$THICKNESS
 40
0.0
  9
$LIMCHECK
 70
     0
  9
$BLIPMODE
 70
     0
  9
$CHAMFERA
 40
0.0
  9
$CHAMFERB
 40
0.0
  9
$SKPOLY
 70
     0
  9
$TDCREATE
 40
2452200.7321329978
  9
$TDUPDATE
 40
2454004.4802534711
  9
$TDINDWG
 40
0.0191787037
  9
$TDUSRTIMER
 40
0.019178125
  9
$USRTIMER
 70
     1
  9
$ANGBASE
 50
0.0
  9
$ANGDIR
 70
     0
  9
$PDMODE
 70
     3
  9
$PDSIZE
 40
-100.0
  9
$PLINEWID
 40
0.0
  9
$COORDS
 70
     2
  9
$SPLFRAME
 70
     0
  9
$SPLINETYPE
 70
     6
  9
$SPLINESEGS
 70
     8
  9
$ATTDIA
 70
     0
  9
$ATTREQ
 70
     1
  9
$HANDLING
 70
 22529
  9
$HANDSEED
  5
AF4E
  9
$SURFTAB1
 70
     6
  9
$SURFTAB2
 70
     6
  9
$SURFTYPE
 70
     6
  9
$SURFU
 70
     6
  9
$SURFV
 70
     6
  9
$UCSNAME
  2

  9
$UCSORG
 10
0.0
 20
0.0
 30
0.0
  9
$UCSXDIR
 10
1.0
 20
0.0
 30
0.0
  9
$UCSYDIR
 10
0.0
 20
1.0
 30
0.0
  9
$PUCSNAME
  2

  9
$PUCSORG
 10
0.0
 20
0.0
 30
0.0
  9
$PUCSXDIR
 10
1.0
 20
0.0
 30
0.0
  9
$PUCSYDIR
 10
0.0
 20
1.0
 30
0.0
  9
$USERI1
 70
     0
  9
$USERI2
 70
     0
  9
$USERI3
 70
     0
  9
$USERI4
 70
     0
  9
$USERI5
 70
     0
  9
$USERR1
 40
0.0
  9
$USERR2
 40
0.0
  9
$USERR3
 40
0.0
  9
$USERR4
 40
0.0
  9
$USERR5
 40
0.0
  9
$WORLDVIEW
 70
     1
  9
$SHADEDGE
 70
     3
  9
$SHADEDIF
 70
    70
  9
$TILEMODE
 70
     1
  9
$MAXACTVP
 70
    16
  9
$PLIMCHECK
 70
     0
  9
$PEXTMIN
 10
1.0000000000000000E+020
 20
1.0000000000000000E+020
 30
1.0000000000000000E+020
  9
$PEXTMAX
 10
-1.0000000000000000E+020
 20
-1.0000000000000000E+020
 30
-1.0000000000000000E+020
  9
$PLIMMIN
 10
0.0
 20
0.0
  9
$PLIMMAX
 10
12.0
 20
9.0
  9
$UNITMODE
 70
     0
  9
$VISRETAIN
 70
     0
  9
$PLINEGEN
 70
     1
  9
$PSLTSCALE
 70
     0
  0
ENDSEC
  0
SECTION
  2
TABLES
  0
TABLE
  2
VPORT
 70
     2
  0
VPORT
  2
*ACTIVE
 70
     0
 10
0.0
 20
0.0
 11
1.0
 21
1.0
 12
83.173547412957717
 22
428.24220488467267
 13
0.0
 23
0.0
 14
1.0
 24
1.0
 15
0.0
 25
0.0
 16
0.0
 26
0.0
 36
1.0
 17
0.0
 27
0.0
 37
0.0
 40
374.58359071914577
 41
1.464761904761904
 42
50.0
 43
0.0
 44
0.0
 50
0.0
 51
0.0
 71
     0
 72
   100
 73
     1
 74
     0
 75
     0
 76
     0
 77
     0
 78
     0
  0
ENDTAB
  0
TABLE
  2
LTYPE
 70
     3
  0
LTYPE
  2
CONTINUOUS
 70
     0
  3
Solid line
 72
    65
 73
     0
 40
0.0
  0
LTYPE
  2
DASHED
 70
     0
  3
Dashed __ __ __ __ __ __ __ __ __ __ __ __ __ _
 72
    65
 73
     2
 40
19.050000000000001
 49
12.699999999999999
 49
-6.3499999999999988
  0
LTYPE
  2
CENTER
 70
     0
  3
Center ____ _ ____ _ ____ _ ____ _ ____ _ ____
 72
    65
 73
     4
 40
50.799999999999997
 49
31.75
 49
-6.3499999999999988
 49
6.3499999999999988
 49
-6.3499999999999988
  0
ENDTAB
  0
TABLE
  2
LAYER
 70
     4
  0
LAYER
  2
0
 70
     0
 62
     7
  6
CONTINUOUS
  0
LAYER
  2
SUNPO
 70
     0
 62
     1
  6
CONTINUOUS
  0
LAYER
  2
DANMEN
 70
     0
 62
     7
  6
CONTINUOUS
  0
LAYER
  2
WAKU
 70
     0
 62
     3
  6
CONTINUOUS
  0
ENDTAB
  0
TABLE
  2
STYLE
 70
     2
  0
STYLE
  2
STANDARD
 70
     0
 40
0.2
 41
1.0
 50
0.0
 71
     0
 42
0.2
  3
txt.shx
  4
bigfont.shx
  0
STYLE
  2
MX_NOTE_STANDARD
 70
     0
 40
2.5
 41
1.0
 50
0.0
 71
     0
 42
2.5
  3
txt.shx
  4
extfont.shx
  0
ENDTAB
  0
TABLE
  2
VIEW
 70
     0
  0
ENDTAB
  0
TABLE
  2
UCS
 70
     0
  0
ENDTAB
  0
TABLE
  2
APPID
 70
     1
  0
APPID
  2
ACAD
 70
     0
  0
ENDTAB
  0
TABLE
  2
DIMSTYLE
 70
     1
  0
DIMSTYLE
  2
MXDIMSTYLE
 70
     0
  3

  4

  5

  6

  7

 40
1.0
 41
2.5
 42
1.5
 43
3.75
 44
0.0
 45
0.0
 46
0.0
 47
0.0
 48
0.0
140
2.5
141
2.5
142
0.0
143
0.0394
144
1.0
145
0.0
146
1.0
147
1.0
 71
     0
 72
     0
 73
     0
 74
     0
 75
     0
 76
     0
 77
     1
 78
     8
170
     0
171
     4
172
     1
173
     0
174
     0
175
     0
176
     0
177
     0
178
     0
  0
ENDTAB
  0
ENDSEC
  0
SECTION
  2
BLOCKS
  0
BLOCK
  8
0
  2
$MODEL_SPACE
 70
     0
 10
0.0
 20
0.0
 30
0.0
  3
$MODEL_SPACE
  1

  0
ENDBLK
  5
2BBC
  8
0
  0
BLOCK
 67
     1
  8
0
  2
$PAPER_SPACE
 70
     0
 10
0.0
 20
0.0
 30
0.0
  3
$PAPER_SPACE
  1

  0
ENDBLK
  5
2BB9
 67
     1
  8
0
  0
BLOCK
  8
0
  2
*U0
 70
     1
 10
0.0
 20
0.0
 30
0.0
  3
*U0
  1

  0
SOLID
  5
2AFF
  8
WAKU
  6
CONTINUOUS
 10
371.30514199999988
 20
283.60529100000002
 30
0.0
 11
370.49978199999993
 21
283.53036100000003
 31
0.0
 12
370.87498699999998
 22
283.52044899999999
 32
0.0
 13
370.87498699999998
 23
283.52044899999999
 33
0.0
  0
SOLID
  5
2B00
  8
WAKU
  6
CONTINUOUS
 10
370.193309
 20
283.63466399999999
 30
0.0
 11
370.49978199999993
 21
283.53036100000003
 31
0.0
 12
371.30514199999988
 22
283.60529100000002
 32
0.0
 13
371.30514199999988
 23
283.60529100000002
 33
0.0
  0
SOLID
  5
2B01
  8
WAKU
  6
CONTINUOUS
 10
371.77444800000001
 20
283.78177299999987
 30
0.0
 11
370.193309
 21
283.63466399999999
 31
0.0
 12
371.30514199999988
 22
283.60529100000002
 32
0.0
 13
371.30514199999988
 23
283.60529100000002
 33
0.0
  0
SOLID
  5
2B02
  8
WAKU
  6
CONTINUOUS
 10
369.96682399999997
 20
283.82952599999987
 30
0.0
 11
370.193309
 21
283.63466399999999
 31
0.0
 12
371.77444800000001
 22
283.78177299999987
 32
0.0
 13
371.77444800000001
 23
283.78177299999987
 33
0.0
  0
SOLID
  5
2B03
  8
WAKU
  6
CONTINUOUS
 10
370.59417699999989
 20
283.90949799999999
 30
0.0
 11
369.96682399999997
 21
283.82952599999987
 31
0.0
 12
371.77444800000001
 22
283.78177299999987
 32
0.0
 13
371.77444800000001
 23
283.78177299999987
 33
0.0
  0
SOLID
  5
2B04
  8
WAKU
  6
CONTINUOUS
 10
370.90129400000001
 20
283.91486300000003
 30
0.0
 11
370.59417699999989
 21
283.90949799999999
 31
0.0
 12
371.77444800000001
 22
283.78177299999987
 32
0.0
 13
371.77444800000001
 23
283.78177299999987
 33
0.0
  0
SOLID
  5
2B05
  8
WAKU
  6
CONTINUOUS
 10
370.39292699999987
 20
283.968568
 30
0.0
 11
369.96682399999997
 21
283.82952599999987
 31
0.0
 12
370.59417699999989
 22
283.90949799999999
 32
0.0
 13
370.59417699999989
 23
283.90949799999999
 33
0.0
  0
SOLID
  5
2B06
  8
WAKU
  6
CONTINUOUS
 10
371.2969839999999
 20
284.01036800000003
 30
0.0
 11
370.90129400000001
 21
283.91486300000003
 31
0.0
 12
371.77444800000001
 22
283.78177299999987
 32
0.0
 13
371.77444800000001
 23
283.78177299999987
 33
0.0
  0
SOLID
  5
2B07
  8
WAKU
  6
CONTINUOUS
 10
372.26566600000001
 20
284.04341099999988
 30
0.0
 11
371.2969839999999
 21
284.01036800000003
 31
0.0
 12
371.77444800000001
 22
283.78177299999987
 32
0.0
 13
371.77444800000001
 23
283.78177299999987
 33
0.0
  0
SOLID
  5
2B08
  8
WAKU
  6
CONTINUOUS
 10
370.27517699999993
 20
284.06647599999991
 30
0.0
 11
369.96682399999997
 21
283.82952599999987
 31
0.0
 12
370.39292699999987
 22
283.968568
 32
0.0
 13
370.39292699999987
 23
283.968568
 33
0.0
  0
SOLID
  5
2B09
  8
WAKU
  6
CONTINUOUS
 10
369.82864599999988
 20
284.10779100000002
 30
0.0
 11
369.96682399999997
 21
283.82952599999987
 31
0.0
 12
370.27517699999993
 22
284.06647599999991
 32
0.0
 13
370.27517699999993
 23
284.06647599999991
 33
0.0
  0
SOLID
  5
2B0A
  8
WAKU
  6
CONTINUOUS
 10
370.70945799999993
 20
284.14239700000002
 30
0.0
 11
369.82864599999988
 21
284.10779100000002
 31
0.0
 12
370.27517699999993
 22
284.06647599999991
 32
0.0
 13
370.27517699999993
 23
284.06647599999991
 33
0.0
  0
SOLID
  5
2B0B
  8
WAKU
  6
CONTINUOUS
 10
371.75188199999991
 20
284.20279799999992
 30
0.0
 11
371.2969839999999
 21
284.01036800000003
 31
0.0
 12
372.26566600000001
 22
284.04341099999988
 32
0.0
 13
372.26566600000001
 23
284.04341099999988
 33
0.0
  0
SOLID
  5
2B0C
  8
WAKU
  6
CONTINUOUS
 10
369.55038100000002
 20
284.245969
 30
0.0
 11
369.82864599999988
 21
284.10779100000002
 31
0.0
 12
370.70945799999993
 22
284.14239700000002
 32
0.0
 13
370.70945799999993
 23
284.14239700000002
 33
0.0
  0
SOLID
  5
2B0D
  8
WAKU
  6
CONTINUOUS
 10
371.18642799999992
 20
284.31462499999992
 30
0.0
 11
369.55038100000002
 21
284.245969
 31
0.0
 12
370.70945799999993
 22
284.14239700000002
 32
0.0
 13
370.70945799999993
 23
284.14239700000002
 33
0.0
  0
SOLID
  5
2B0E
  8
WAKU
  6
CONTINUOUS
 10
372.76075600000001
 20
284.38059500000003
 30
0.0
 11
371.75188199999991
 21
284.20279799999992
 31
0.0
 12
372.26566600000001
 22
284.04341099999988
 32
0.0
 13
372.26566600000001
 23
284.04341099999988
 33
0.0
  0
SOLID
  5
2B0F
  8
WAKU
  6
CONTINUOUS
 10
370.172911
 20
284.45185600000002
 30
0.0
 11
369.55038100000002
 21
284.245969
 31
0.0
 12
371.18642799999992
 22
284.31462499999992
 32
0.0
 13
371.18642799999992
 23
284.31462499999992
 33
0.0
  0
SOLID
  5
2B10
  8
WAKU
  6
CONTINUOUS
 10
369.35551800000002
 20
284.47245400000003
 30
0.0
 11
369.55038100000002
 21
284.245969
 31
0.0
 12
370.172911
 22
284.45185600000002
 32
0.0
 13
370.172911
 23
284.45185600000002
 33
0.0
  0
SOLID
  5
2B11
  8
WAKU
  6
CONTINUOUS
 10
372.23749700000002
 20
284.48611699999992
 30
0.0
 11
371.75188199999991
 21
284.20279799999992
 31
0.0
 12
372.76075600000001
 22
284.38059500000003
 32
0.0
 13
372.76075600000001
 23
284.38059500000003
 33
0.0
  0
SOLID
  5
2B12
  8
WAKU
  6
CONTINUOUS
 10
370.68139500000001
 20
284.53919500000001
 30
0.0
 11
370.172911
 21
284.45185600000002
 31
0.0
 12
371.18642799999992
 22
284.31462499999992
 32
0.0
 13
371.18642799999992
 23
284.31462499999992
 33
0.0
  0
SOLID
  5
2B13
  8
WAKU
  6
CONTINUOUS
 10
369.787305
 20
284.55393500000002
 30
0.0
 11
369.35551800000002
 21
284.47245400000003
 31
0.0
 12
370.172911
 22
284.45185600000002
 32
0.0
 13
370.172911
 23
284.45185600000002
 33
0.0
  0
SOLID
  5
2B14
  8
WAKU
  6
CONTINUOUS
 10
371.68776999999989
 20
284.57654500000001
 30
0.0
 11
370.68139500000001
 21
284.53919500000001
 31
0.0
 12
371.18642799999992
 22
284.31462499999992
 32
0.0
 13
371.18642799999992
 23
284.31462499999992
 33
0.0
  0
SOLID
  5
2B15
  8
WAKU
  6
CONTINUOUS
 10
369.68915499999991
 20
284.67243500000001
 30
0.0
 11
369.35551800000002
 21
284.47245400000003
 31
0.0
 12
369.787305
 22
284.55393500000002
 32
0.0
 13
369.787305
 23
284.55393500000002
 33
0.0
  0
SOLID
  5
2B16
  8
WAKU
  6
CONTINUOUS
 10
369.251215
 20
284.77892800000001
 30
0.0
 11
369.35551800000002
 21
284.47245400000003
 31
0.0
 12
369.68915499999991
 22
284.67243500000001
 32
0.0
 13
369.68915499999991
 23
284.67243500000001
 33
0.0
  0
SOLID
  5
2B17
  8
WAKU
  6
CONTINUOUS
 10
373.24153200000001
 20
284.78094099999998
 30
0.0
 11
372.23749700000002
 21
284.48611699999992
 31
0.0
 12
372.76075600000001
 22
284.38059500000003
 32
0.0
 13
372.76075600000001
 23
284.38059500000003
 33
0.0
  0
SOLID
  5
2B18
  8
WAKU
  6
CONTINUOUS
 10
371.31226299999992
 20
284.8103319999999
 30
0.0
 11
370.68139500000001
 21
284.53919500000001
 31
0.0
 12
371.68776999999989
 22
284.57654500000001
 32
0.0
 13
371.68776999999989
 23
284.57654500000001
 33
0.0
  0
SOLID
  5
2B19
  8
WAKU
  6
CONTINUOUS
 10
369.63035799999989
 20
284.873087
 30
0.0
 11
369.251215
 21
284.77892800000001
 31
0.0
 12
369.68915499999991
 22
284.67243500000001
 32
0.0
 13
369.68915499999991
 23
284.67243500000001
 33
0.0
  0
SOLID
  5
2B1A
  8
WAKU
  6
CONTINUOUS
 10
372.194232
 20
284.91809899999998
 30
0.0
 11
371.31226299999992
 21
284.8103319999999
 31
0.0
 12
371.68776999999989
 22
284.57654500000001
 32
0.0
 13
371.68776999999989
 23
284.57654500000001
 33
0.0
  0
SOLID
  5
2B1B
  8
WAKU
  6
CONTINUOUS
 10
370.26016800000002
 20
284.959969
 30
0.0
 11
369.787305
 21
284.55393500000002
 31
0.0
 12
370.172911
 22
284.45185600000002
 32
0.0
 13
370.172911
 23
284.45185600000002
 33
0.0
  0
SOLID
  5
2B1C
  8
WAKU
  6
CONTINUOUS
 10
369.86313899999999
 20
284.98818899999998
 30
0.0
 11
369.787305
 21
284.55393500000002
 31
0.0
 12
370.26016800000002
 22
284.959969
 32
0.0
 13
370.26016800000002
 23
284.959969
 33
0.0
  0
SOLID
  5
2B1D
  8
WAKU
  6
CONTINUOUS
 10
398.19400599999989
 20
285.115385
 30
0.0
 11
397.60605499999991
 21
283.49999999999989
 31
0.0
 12
401.913747
 22
283.49999999999989
 32
0.0
 13
401.913747
 23
283.49999999999989
 33
0.0
  0
SOLID
  5
2B1E
  8
WAKU
  6
CONTINUOUS
 10
401.913747
 20
283.49999999999989
 30
0.0
 11
401.42477599999989
 21
285.115385
 31
0.0
 12
398.19400599999989
 22
285.115385
 32
0.0
 13
398.19400599999989
 23
285.115385
 33
0.0
  0
SOLID
  5
2B1F
  8
WAKU
  6
CONTINUOUS
 10
369.2413029999999
 20
285.15413199999989
 30
0.0
 11
369.251215
 21
284.77892800000001
 31
0.0
 12
369.63035799999989
 22
284.873087
 32
0.0
 13
369.63035799999989
 23
284.873087
 33
0.0
  0
SOLID
  5
2B20
  8
WAKU
  6
CONTINUOUS
 10
369.635696
 20
285.18040400000001
 30
0.0
 11
369.2413029999999
 21
285.15413199999989
 31
0.0
 12
369.63035799999989
 22
284.873087
 32
0.0
 13
369.63035799999989
 23
284.873087
 33
0.0
  0
SOLID
  5
2B21
  8
WAKU
  6
CONTINUOUS
 10
373.69033499999989
 20
285.22974399999998
 30
0.0
 11
372.23749700000002
 21
284.48611699999992
 31
0.0
 12
373.24153200000001
 22
284.78094099999998
 32
0.0
 13
373.24153200000001
 23
284.78094099999998
 33
0.0
  0
SOLID
  5
2B22
  8
WAKU
  6
CONTINUOUS
 10
371.98993999999999
 20
285.25143100000003
 30
0.0
 11
371.31226299999992
 21
284.8103319999999
 31
0.0
 12
372.194232
 22
284.91809899999998
 32
0.0
 13
372.194232
 23
284.91809899999998
 33
0.0
  0
SOLID
  5
2B23
  8
WAKU
  6
CONTINUOUS
 10
373.195965
 20
285.2752319999999
 30
0.0
 11
372.23749700000002
 21
284.48611699999992
 31
0.0
 12
373.69033499999989
 22
285.22974399999998
 32
0.0
 13
373.69033499999989
 23
285.22974399999998
 33
0.0
  0
SOLID
  5
2B24
  8
WAKU
  6
CONTINUOUS
 10
372.68636299999991
 20
285.32617099999987
 30
0.0
 11
371.98993999999999
 21
285.25143100000003
 31
0.0
 12
372.194232
 22
284.91809899999998
 32
0.0
 13
372.194232
 23
284.91809899999998
 33
0.0
  0
SOLID
  5
2B25
  8
WAKU
  6
CONTINUOUS
 10
370.03529300000002
 20
285.46515399999993
 30
0.0
 11
369.86313899999999
 21
284.98818899999998
 31
0.0
 12
370.26016800000002
 22
284.959969
 32
0.0
 13
370.26016800000002
 23
284.959969
 33
0.0
  0
SOLID
  5
2B26
  8
WAKU
  6
CONTINUOUS
 10
369.73149000000001
 20
285.57602099999991
 30
0.0
 11
369.2413029999999
 21
285.15413199999989
 31
0.0
 12
369.635696
 22
285.18040400000001
 32
0.0
 13
369.635696
 23
285.18040400000001
 33
0.0
  0
SOLID
  5
2B27
  8
WAKU
  6
CONTINUOUS
 10
369.32614599999988
 20
285.58428700000002
 30
0.0
 11
369.2413029999999
 21
285.15413199999989
 31
0.0
 12
369.73149000000001
 22
285.57602099999991
 32
0.0
 13
369.73149000000001
 23
285.57602099999991
 33
0.0
  0
SOLID
  5
2B28
  8
WAKU
  6
CONTINUOUS
 10
370.53071199999999
 20
285.59087499999993
 30
0.0
 11
370.03529300000002
 21
285.46515399999993
 31
0.0
 12
370.26016800000002
 22
284.959969
 32
0.0
 13
370.26016800000002
 23
284.959969
 33
0.0
  0
SOLID
  5
2B29
  8
WAKU
  6
CONTINUOUS
 10
388.45220799999993
 20
283.49999999999989
 30
0.0
 11
389.23614399999991
 21
285.65384599999987
 31
0.0
 12
383.85152900000003
 22
285.65384599999987
 32
0.0
 13
383.85152900000003
 23
285.65384599999987
 33
0.0
  0
SOLID
  5
2B2A
  8
WAKU
  6
CONTINUOUS
 10
383.85152900000003
 20
285.65384599999987
 30
0.0
 11
383.06759299999999
 21
283.49999999999989
 31
0.0
 12
388.45220799999993
 22
283.49999999999989
 32
0.0
 13
388.45220799999993
 23
283.49999999999989
 33
0.0
  0
SOLID
  5
2B2B
  8
WAKU
  6
CONTINUOUS
 10
391.17460599999998
 20
285.65384599999987
 30
0.0
 11
390.39067
 21
283.49999999999989
 31
0.0
 12
395.45220799999993
 22
283.49999999999989
 32
0.0
 13
395.45220799999993
 23
283.49999999999989
 33
0.0
  0
SOLID
  5
2B2C
  8
WAKU
  6
CONTINUOUS
 10
395.45220799999993
 20
283.49999999999989
 30
0.0
 11
395.159221
 21
285.65384599999987
 31
0.0
 12
391.17460599999998
 22
285.65384599999987
 32
0.0
 13
391.17460599999998
 23
285.65384599999987
 33
0.0
  0
SOLID
  5
2B2D
  8
WAKU
  6
CONTINUOUS
 10
404.85152900000003
 20
285.65384599999987
 30
0.0
 11
404.06759299999999
 21
283.49999999999989
 31
0.0
 12
409.45220799999993
 22
283.49999999999989
 32
0.0
 13
409.45220799999993
 23
283.49999999999989
 33
0.0
  0
SOLID
  5
2B2E
  8
WAKU
  6
CONTINUOUS
 10
409.45220799999993
 20
283.49999999999989
 30
0.0
 11
409.15922099999989
 21
285.65384599999987
 31
0.0
 12
404.85152900000003
 22
285.65384599999987
 32
0.0
 13
404.85152900000003
 23
285.65384599999987
 33
0.0
  0
SOLID
  5
2B2F
  8
WAKU
  6
CONTINUOUS
 10
374.09068100000002
 20
285.71051999999997
 30
0.0
 11
373.195965
 21
285.2752319999999
 31
0.0
 12
373.69033499999989
 22
285.22974399999998
 32
0.0
 13
373.69033499999989
 23
285.22974399999998
 33
0.0
  0
SOLID
  5
2B30
  8
WAKU
  6
CONTINUOUS
 10
373.14526599999988
 20
285.78508900000003
 30
0.0
 11
371.98993999999999
 21
285.25143100000003
 31
0.0
 12
372.68636299999991
 22
285.32617099999987
 32
0.0
 13
372.68636299999991
 23
285.32617099999987
 33
0.0
  0
SOLID
  5
2B31
  8
WAKU
  6
CONTINUOUS
 10
372.64629600000001
 20
285.82550600000002
 30
0.0
 11
371.98993999999999
 21
285.25143100000003
 31
0.0
 12
373.14526599999988
 22
285.78508900000003
 32
0.0
 13
373.14526599999988
 23
285.78508900000003
 33
0.0
  0
SOLID
  5
2B32
  8
WAKU
  6
CONTINUOUS
 10
370.29715599999997
 20
285.96650899999992
 30
0.0
 11
370.03529300000002
 21
285.46515399999993
 31
0.0
 12
370.53071199999999
 22
285.59087499999993
 32
0.0
 13
370.53071199999999
 23
285.59087499999993
 33
0.0
  0
SOLID
  5
2B33
  8
WAKU
  6
CONTINUOUS
 10
369.923519
 20
286.03102799999988
 30
0.0
 11
369.32614599999988
 21
285.58428700000002
 31
0.0
 12
369.73149000000001
 22
285.57602099999991
 32
0.0
 13
369.73149000000001
 23
285.57602099999991
 33
0.0
  0
SOLID
  5
2B34
  8
WAKU
  6
CONTINUOUS
 10
369.50262700000002
 20
286.05359299999998
 30
0.0
 11
369.32614599999988
 21
285.58428700000002
 31
0.0
 12
369.923519
 22
286.03102799999988
 32
0.0
 13
369.923519
 23
286.03102799999988
 33
0.0
  0
SOLID
  5
2B35
  8
WAKU
  6
CONTINUOUS
 10
379.39714500000002
 20
286.13846199999989
 30
0.0
 11
378.436824
 21
283.49999999999989
 31
0.0
 12
379.51374700000002
 22
283.49999999999989
 32
0.0
 13
379.51374700000002
 23
283.49999999999989
 33
0.0
  0
SOLID
  5
2B36
  8
WAKU
  6
CONTINUOUS
 10
380.49366700000002
 20
286.19230800000003
 30
0.0
 11
379.39714500000002
 21
286.13846199999989
 31
0.0
 12
379.51374700000002
 22
283.49999999999989
 32
0.0
 13
379.51374700000002
 23
283.49999999999989
 33
0.0
  0
SOLID
  5
2B37
  8
WAKU
  6
CONTINUOUS
 10
382.75520499999988
 20
286.19230800000003
 30
0.0
 11
380.49366700000002
 21
286.19230800000003
 31
0.0
 12
381.775285
 22
283.49999999999989
 32
0.0
 13
381.775285
 23
283.49999999999989
 33
0.0
  0
SOLID
  5
2B38
  8
WAKU
  6
CONTINUOUS
 10
377.15520499999991
 20
286.19230800000003
 30
0.0
 11
380.49366700000002
 21
286.19230800000003
 31
0.0
 12
382.75520499999988
 22
286.19230800000003
 32
0.0
 13
382.75520499999988
 23
286.19230800000003
 33
0.0
  0
SOLID
  5
2B39
  8
WAKU
  6
CONTINUOUS
 10
377.15520499999991
 20
286.19230800000003
 30
0.0
 11
379.39714500000002
 21
286.13846199999989
 31
0.0
 12
380.49366700000002
 22
286.19230800000003
 32
0.0
 13
380.49366700000002
 23
286.19230800000003
 33
0.0
  0
SOLID
  5
2B3A
  8
WAKU
  6
CONTINUOUS
 10
377.15520499999991
 20
286.19230800000003
 30
0.0
 11
376.17528499999997
 21
283.49999999999989
 31
0.0
 12
379.39714500000002
 22
286.13846199999989
 32
0.0
 13
379.39714500000002
 23
286.13846199999989
 33
0.0
  0
SOLID
  5
2B3B
  8
WAKU
  6
CONTINUOUS
 10
374.427865
 20
286.20560899999992
 30
0.0
 11
373.195965
 21
285.2752319999999
 31
0.0
 12
374.09068100000002
 22
285.71051999999997
 32
0.0
 13
374.09068100000002
 23
285.71051999999997
 33
0.0
  0
SOLID
  5
2B3C
  8
WAKU
  6
CONTINUOUS
 10
373.98505
 20
286.23371800000001
 30
0.0
 11
373.195965
 21
285.2752319999999
 31
0.0
 12
374.427865
 22
286.20560899999992
 32
0.0
 13
374.427865
 23
286.20560899999992
 33
0.0
  0
SOLID
  5
2B3D
  8
WAKU
  6
CONTINUOUS
 10
370.97189600000002
 20
286.26847099999992
 30
0.0
 11
370.29715599999997
 21
285.96650899999992
 31
0.0
 12
370.53071199999999
 22
285.59087499999993
 32
0.0
 13
370.53071199999999
 23
285.59087499999993
 33
0.0
  0
SOLID
  5
2B3E
  8
WAKU
  6
CONTINUOUS
 10
373.553316
 20
286.27722899999992
 30
0.0
 11
372.64629600000001
 21
285.82550600000002
 31
0.0
 12
373.14526599999988
 22
285.78508900000003
 32
0.0
 13
373.14526599999988
 23
285.78508900000003
 33
0.0
  0
SOLID
  5
2B3F
  8
WAKU
  6
CONTINUOUS
 10
370.63867099999987
 20
286.47300000000001
 30
0.0
 11
370.29715599999997
 21
285.96650899999992
 31
0.0
 12
370.97189600000002
 22
286.26847099999992
 32
0.0
 13
370.97189600000002
 23
286.26847099999992
 33
0.0
  0
SOLID
  5
2B40
  8
WAKU
  6
CONTINUOUS
 10
373.22023799999988
 20
286.48191999999989
 30
0.0
 11
372.64629600000001
 21
285.82550600000002
 31
0.0
 12
373.553316
 22
286.27722899999992
 32
0.0
 13
373.553316
 23
286.27722899999992
 33
0.0
  0
SOLID
  5
2B41
  8
WAKU
  6
CONTINUOUS
 10
370.20703500000002
 20
286.51657
 30
0.0
 11
369.50262700000002
 21
286.05359299999998
 31
0.0
 12
369.923519
 22
286.03102799999988
 32
0.0
 13
369.923519
 23
286.03102799999988
 33
0.0
  0
SOLID
  5
2B42
  8
WAKU
  6
CONTINUOUS
 10
369.76426499999991
 20
286.54481199999998
 30
0.0
 11
369.50262700000002
 21
286.05359299999998
 31
0.0
 12
370.20703500000002
 22
286.51657
 32
0.0
 13
370.20703500000002
 23
286.51657
 33
0.0
  0
SOLID
  5
2B43
  8
WAKU
  6
CONTINUOUS
 10
374.689503
 20
286.69682799999998
 30
0.0
 11
373.98505
 21
286.23371800000001
 31
0.0
 12
374.427865
 22
286.20560899999992
 32
0.0
 13
374.427865
 23
286.20560899999992
 33
0.0
  0
SOLID
  5
2B44
  8
WAKU
  6
CONTINUOUS
 10
374.268507
 20
286.71927799999992
 30
0.0
 11
373.98505
 21
286.23371800000001
 31
0.0
 12
374.689503
 22
286.69682799999998
 32
0.0
 13
374.689503
 23
286.69682799999998
 33
0.0
  0
SOLID
  5
2B45
  8
WAKU
  6
CONTINUOUS
 10
373.89484299999998
 20
286.78369300000003
 30
0.0
 11
373.22023799999988
 21
286.48191999999989
 31
0.0
 12
373.553316
 22
286.27722899999992
 32
0.0
 13
373.553316
 23
286.27722899999992
 33
0.0
  0
SOLID
  5
2B46
  8
WAKU
  6
CONTINUOUS
 10
371.54582699999992
 20
286.92489299999988
 30
0.0
 11
370.63867099999987
 21
286.47300000000001
 31
0.0
 12
370.97189600000002
 22
286.26847099999992
 32
0.0
 13
370.97189600000002
 23
286.26847099999992
 33
0.0
  0
SOLID
  5
2B47
  8
WAKU
  6
CONTINUOUS
 10
371.04671999999999
 20
286.96517399999999
 30
0.0
 11
370.63867099999987
 21
286.47300000000001
 31
0.0
 12
371.54582699999992
 22
286.92489299999988
 32
0.0
 13
371.54582699999992
 23
286.92489299999988
 33
0.0
  0
SOLID
  5
2B48
  8
WAKU
  6
CONTINUOUS
 10
370.10144899999989
 20
287.03990099999987
 30
0.0
 11
369.76426499999991
 21
286.54481199999998
 31
0.0
 12
370.20703500000002
 22
286.51657
 32
0.0
 13
370.20703500000002
 23
286.51657
 33
0.0
  0
SOLID
  5
2B49
  8
WAKU
  6
CONTINUOUS
 10
373.66135299999991
 20
287.15953400000001
 30
0.0
 11
373.22023799999988
 21
286.48191999999989
 31
0.0
 12
373.89484299999998
 22
286.78369300000003
 32
0.0
 13
373.89484299999998
 23
286.78369300000003
 33
0.0
  0
SOLID
  5
2B4A
  8
WAKU
  6
CONTINUOUS
 10
374.86598399999991
 20
287.166134
 30
0.0
 11
374.268507
 21
286.71927799999992
 31
0.0
 12
374.689503
 22
286.69682799999998
 32
0.0
 13
374.689503
 23
286.69682799999998
 33
0.0
  0
SOLID
  5
2B4B
  8
WAKU
  6
CONTINUOUS
 10
374.46071000000001
 20
287.17424799999992
 30
0.0
 11
374.268507
 21
286.71927799999992
 31
0.0
 12
374.86598399999991
 22
287.166134
 32
0.0
 13
374.86598399999991
 23
287.166134
 33
0.0
  0
SOLID
  5
2B4C
  8
WAKU
  6
CONTINUOUS
 10
374.15673199999992
 20
287.28502999999989
 30
0.0
 11
373.66135299999991
 21
287.15953400000001
 31
0.0
 12
373.89484299999998
 22
286.78369300000003
 32
0.0
 13
373.89484299999998
 23
286.78369300000003
 33
0.0
  0
SOLID
  5
2B4D
  8
WAKU
  6
CONTINUOUS
 10
371.50563199999988
 20
287.424128
 30
0.0
 11
371.04671999999999
 21
286.96517399999999
 31
0.0
 12
371.54582699999992
 22
286.92489299999988
 32
0.0
 13
371.54582699999992
 23
286.92489299999988
 33
0.0
  0
SOLID
  5
2B4E
  8
WAKU
  6
CONTINUOUS
 10
370.99609800000002
 20
287.47510799999998
 30
0.0
 11
370.10144899999989
 21
287.03990099999987
 31
0.0
 12
370.20703500000002
 22
286.51657
 32
0.0
 13
370.20703500000002
 23
286.51657
 33
0.0
  0
SOLID
  5
2B4F
  8
WAKU
  6
CONTINUOUS
 10
372.202181
 20
287.49899099999999
 30
0.0
 11
371.50563199999988
 21
287.424128
 31
0.0
 12
371.54582699999992
 22
286.92489299999988
 32
0.0
 13
371.54582699999992
 23
286.92489299999988
 33
0.0
  0
SOLID
  5
2B50
  8
WAKU
  6
CONTINUOUS
 10
370.50179500000002
 20
287.52067699999992
 30
0.0
 11
370.10144899999989
 21
287.03990099999987
 31
0.0
 12
370.99609800000002
 22
287.47510799999998
 32
0.0
 13
370.99609800000002
 23
287.47510799999998
 33
0.0
  0
SOLID
  5
2B51
  8
WAKU
  6
CONTINUOUS
 10
374.55636099999998
 20
287.56986399999988
 30
0.0
 11
374.46071000000001
 21
287.17424799999992
 31
0.0
 12
374.86598399999991
 22
287.166134
 32
0.0
 13
374.86598399999991
 23
287.166134
 33
0.0
  0
SOLID
  5
2B52
  8
WAKU
  6
CONTINUOUS
 10
393.17245600000001
 20
287.592308
 30
0.0
 11
391.70356499999991
 21
286.51538499999998
 31
0.0
 12
392.78048799999999
 22
286.51538499999998
 32
0.0
 13
392.78048799999999
 23
286.51538499999998
 33
0.0
  0
SOLID
  5
2B53
  8
WAKU
  6
CONTINUOUS
 10
395.86476299999993
 20
287.592308
 30
0.0
 11
395.159221
 21
285.65384599999987
 31
0.0
 12
395.45220799999993
 22
283.49999999999989
 32
0.0
 13
395.45220799999993
 23
283.49999999999989
 33
0.0
  0
SOLID
  5
2B54
  8
WAKU
  6
CONTINUOUS
 10
396.941687
 20
287.592308
 30
0.0
 11
393.17245600000001
 21
287.592308
 31
0.0
 12
395.86476299999993
 22
287.592308
 32
0.0
 13
395.86476299999993
 23
287.592308
 33
0.0
  0
SOLID
  5
2B55
  8
WAKU
  6
CONTINUOUS
 10
396.941687
 20
287.592308
 30
0.0
 11
395.86476299999993
 21
287.592308
 31
0.0
 12
395.45220799999993
 22
283.49999999999989
 32
0.0
 13
395.45220799999993
 23
283.49999999999989
 33
0.0
  0
SOLID
  5
2B56
  8
WAKU
  6
CONTINUOUS
 10
392.09553299999988
 20
287.592308
 30
0.0
 11
396.941687
 21
287.592308
 31
0.0
 12
397.74937899999998
 22
287.592308
 32
0.0
 13
397.74937899999998
 23
287.592308
 33
0.0
  0
SOLID
  5
2B57
  8
WAKU
  6
CONTINUOUS
 10
392.09553299999988
 20
287.592308
 30
0.0
 11
393.17245600000001
 21
287.592308
 31
0.0
 12
396.941687
 22
287.592308
 32
0.0
 13
396.941687
 23
287.592308
 33
0.0
  0
SOLID
  5
2B58
  8
WAKU
  6
CONTINUOUS
 10
392.09553299999988
 20
287.592308
 30
0.0
 11
391.70356499999991
 21
286.51538499999998
 31
0.0
 12
393.17245600000001
 22
287.592308
 32
0.0
 13
393.17245600000001
 23
287.592308
 33
0.0
  0
SOLID
  5
2B59
  8
WAKU
  6
CONTINUOUS
 10
374.950827
 20
287.59628900000001
 30
0.0
 11
374.55636099999998
 21
287.56986399999988
 31
0.0
 12
374.86598399999991
 22
287.166134
 32
0.0
 13
374.86598399999991
 23
287.166134
 33
0.0
  0
SOLID
  5
2B5A
  8
WAKU
  6
CONTINUOUS
 10
374.32892500000003
 20
287.76198699999998
 30
0.0
 11
373.66135299999991
 21
287.15953400000001
 31
0.0
 12
374.15673199999992
 22
287.28502999999989
 32
0.0
 13
374.15673199999992
 23
287.28502999999989
 33
0.0
  0
SOLID
  5
2B5B
  8
WAKU
  6
CONTINUOUS
 10
373.93207100000001
 20
287.79040199999997
 30
0.0
 11
373.66135299999991
 21
287.15953400000001
 31
0.0
 12
374.32892500000003
 22
287.76198699999998
 32
0.0
 13
374.32892500000003
 23
287.76198699999998
 33
0.0
  0
SOLID
  5
2B5C
  8
WAKU
  6
CONTINUOUS
 10
371.99778300000003
 20
287.83223500000003
 30
0.0
 11
371.50563199999988
 21
287.424128
 31
0.0
 12
372.202181
 22
287.49899099999999
 32
0.0
 13
372.202181
 23
287.49899099999999
 33
0.0
  0
SOLID
  5
2B5D
  8
WAKU
  6
CONTINUOUS
 10
374.561802
 20
287.87725299999988
 30
0.0
 11
374.55636099999998
 21
287.56986399999988
 31
0.0
 12
374.950827
 22
287.59628900000001
 32
0.0
 13
374.950827
 23
287.59628900000001
 33
0.0
  0
SOLID
  5
2B5E
  8
WAKU
  6
CONTINUOUS
 10
372.87987799999991
 20
287.94005699999991
 30
0.0
 11
371.99778300000003
 21
287.83223500000003
 31
0.0
 12
372.202181
 22
287.49899099999999
 32
0.0
 13
372.202181
 23
287.49899099999999
 33
0.0
  0
SOLID
  5
2B5F
  8
WAKU
  6
CONTINUOUS
 10
370.95059900000001
 20
287.96947999999992
 30
0.0
 11
370.50179500000002
 21
287.52067699999992
 31
0.0
 12
370.99609800000002
 22
287.47510799999998
 32
0.0
 13
370.99609800000002
 23
287.47510799999998
 33
0.0
  0
SOLID
  5
2B60
  8
WAKU
  6
CONTINUOUS
 10
374.94091500000002
 20
287.97149300000001
 30
0.0
 11
374.561802
 21
287.87725299999988
 31
0.0
 12
374.950827
 22
287.59628900000001
 32
0.0
 13
374.950827
 23
287.59628900000001
 33
0.0
  0
SOLID
  5
2B61
  8
WAKU
  6
CONTINUOUS
 10
374.502951
 20
288.07791800000001
 30
0.0
 11
374.561802
 21
287.87725299999988
 31
0.0
 12
374.94091500000002
 22
287.97149300000001
 32
0.0
 13
374.94091500000002
 23
287.97149300000001
 33
0.0
  0
SOLID
  5
2B62
  8
WAKU
  6
CONTINUOUS
 10
408.51346299999989
 20
286.83846199999999
 30
0.0
 11
408.98382400000003
 21
288.13076899999987
 31
0.0
 12
405.75305500000002
 22
288.13076899999987
 32
0.0
 13
405.75305500000002
 23
288.13076899999987
 33
0.0
  0
SOLID
  5
2B63
  8
WAKU
  6
CONTINUOUS
 10
405.75305500000002
 20
288.13076899999987
 30
0.0
 11
405.28269399999999
 21
286.83846199999999
 31
0.0
 12
408.51346299999989
 22
286.83846199999999
 32
0.0
 13
408.51346299999989
 23
286.83846199999999
 33
0.0
  0
SOLID
  5
2B64
  8
WAKU
  6
CONTINUOUS
 10
372.50426900000002
 20
288.17382099999992
 30
0.0
 11
371.99778300000003
 21
287.83223500000003
 31
0.0
 12
372.87987799999991
 22
287.94005699999991
 32
0.0
 13
372.87987799999991
 23
287.94005699999991
 33
0.0
  0
SOLID
  5
2B65
  8
WAKU
  6
CONTINUOUS
 10
374.40481
 20
288.19624900000002
 30
0.0
 11
373.93207100000001
 21
287.79040199999997
 31
0.0
 12
374.32892500000003
 22
287.76198699999998
 32
0.0
 13
374.32892500000003
 23
287.76198699999998
 33
0.0
  0
SOLID
  5
2B66
  8
WAKU
  6
CONTINUOUS
 10
374.40481
 20
288.19624900000002
 30
0.0
 11
374.502951
 21
288.07791800000001
 31
0.0
 12
374.94091500000002
 22
287.97149300000001
 32
0.0
 13
374.94091500000002
 23
287.97149300000001
 33
0.0
  0
SOLID
  5
2B67
  8
WAKU
  6
CONTINUOUS
 10
373.510738
 20
288.21123999999998
 30
0.0
 11
372.50426900000002
 21
288.17382099999992
 31
0.0
 12
372.87987799999991
 22
287.94005699999991
 32
0.0
 13
372.87987799999991
 23
287.94005699999991
 33
0.0
  0
SOLID
  5
2B68
  8
WAKU
  6
CONTINUOUS
 10
371.954587
 20
288.26428399999992
 30
0.0
 11
370.95059900000001
 21
287.96947999999992
 31
0.0
 12
370.99609800000002
 22
287.47510799999998
 32
0.0
 13
370.99609800000002
 23
287.47510799999998
 33
0.0
  0
SOLID
  5
2B69
  8
WAKU
  6
CONTINUOUS
 10
374.836612
 20
288.27796699999999
 30
0.0
 11
374.40481
 21
288.19624900000002
 31
0.0
 12
374.94091500000002
 22
287.97149300000001
 32
0.0
 13
374.94091500000002
 23
287.97149300000001
 33
0.0
  0
SOLID
  5
2B6A
  8
WAKU
  6
CONTINUOUS
 10
374.01922899999988
 20
288.29856899999987
 30
0.0
 11
372.50426900000002
 21
288.17382099999992
 31
0.0
 12
373.510738
 22
288.21123999999998
 32
0.0
 13
373.510738
 23
288.21123999999998
 33
0.0
  0
SOLID
  5
2B6B
  8
WAKU
  6
CONTINUOUS
 10
374.01922899999988
 20
288.29856899999987
 30
0.0
 11
374.40481
 21
288.19624900000002
 31
0.0
 12
374.836612
 22
288.27796699999999
 32
0.0
 13
374.836612
 23
288.27796699999999
 33
0.0
  0
SOLID
  5
2B6C
  8
WAKU
  6
CONTINUOUS
 10
374.01922899999988
 20
288.29856899999987
 30
0.0
 11
373.93207100000001
 21
287.79040199999997
 31
0.0
 12
374.40481
 22
288.19624900000002
 32
0.0
 13
374.40481
 23
288.19624900000002
 33
0.0
  0
SOLID
  5
2B6D
  8
WAKU
  6
CONTINUOUS
 10
371.43137400000001
 20
288.36982599999999
 30
0.0
 11
370.95059900000001
 21
287.96947999999992
 31
0.0
 12
371.954587
 22
288.26428399999992
 32
0.0
 13
371.954587
 23
288.26428399999992
 33
0.0
  0
SOLID
  5
2B6E
  8
WAKU
  6
CONTINUOUS
 10
373.00563899999997
 20
288.43576799999988
 30
0.0
 11
372.50426900000002
 21
288.17382099999992
 31
0.0
 12
374.01922899999988
 22
288.29856899999987
 32
0.0
 13
374.01922899999988
 23
288.29856899999987
 33
0.0
  0
SOLID
  5
2B6F
  8
WAKU
  6
CONTINUOUS
 10
374.641749
 20
288.50445200000001
 30
0.0
 11
373.00563899999997
 21
288.43576799999988
 31
0.0
 12
374.01922899999988
 22
288.29856899999987
 32
0.0
 13
374.01922899999988
 23
288.29856899999987
 33
0.0
  0
SOLID
  5
2B70
  8
WAKU
  6
CONTINUOUS
 10
374.641749
 20
288.50445200000001
 30
0.0
 11
374.01922899999988
 21
288.29856899999987
 31
0.0
 12
374.836612
 22
288.27796699999999
 32
0.0
 13
374.836612
 23
288.27796699999999
 33
0.0
  0
SOLID
  5
2B71
  8
WAKU
  6
CONTINUOUS
 10
372.44023499999997
 20
288.54758500000003
 30
0.0
 11
371.43137400000001
 21
288.36982599999999
 31
0.0
 12
371.954587
 22
288.26428399999992
 32
0.0
 13
371.954587
 23
288.26428399999992
 33
0.0
  0
SOLID
  5
2B72
  8
WAKU
  6
CONTINUOUS
 10
373.48263600000001
 20
288.60801400000003
 30
0.0
 11
373.00563899999997
 21
288.43576799999988
 31
0.0
 12
374.641749
 22
288.50445200000001
 32
0.0
 13
374.641749
 23
288.50445200000001
 33
0.0
  0
SOLID
  5
2B73
  8
WAKU
  6
CONTINUOUS
 10
374.36348399999991
 20
288.64263
 30
0.0
 11
373.48263600000001
 21
288.60801400000003
 31
0.0
 12
374.641749
 22
288.50445200000001
 32
0.0
 13
374.641749
 23
288.50445200000001
 33
0.0
  0
SOLID
  5
2B74
  8
WAKU
  6
CONTINUOUS
 10
373.91694100000001
 20
288.683944
 30
0.0
 11
373.48263600000001
 21
288.60801400000003
 31
0.0
 12
374.36348399999991
 22
288.64263
 32
0.0
 13
374.36348399999991
 23
288.64263
 33
0.0
  0
SOLID
  5
2B75
  8
WAKU
  6
CONTINUOUS
 10
371.92646400000001
 20
288.70701000000003
 30
0.0
 11
371.43137400000001
 21
288.36982599999999
 31
0.0
 12
372.44023499999997
 22
288.54758500000003
 32
0.0
 13
372.44023499999997
 23
288.54758500000003
 33
0.0
  0
SOLID
  5
2B76
  8
WAKU
  6
CONTINUOUS
 10
372.89513999999991
 20
288.74006500000002
 30
0.0
 11
371.92646400000001
 21
288.70701000000003
 31
0.0
 12
372.44023499999997
 22
288.54758500000003
 32
0.0
 13
372.44023499999997
 23
288.54758500000003
 33
0.0
  0
SOLID
  5
2B77
  8
WAKU
  6
CONTINUOUS
 10
381.5248509999999
 20
288.7769229999999
 30
0.0
 11
377.15520499999991
 21
286.19230800000003
 31
0.0
 12
382.75520499999988
 22
286.19230800000003
 32
0.0
 13
382.75520499999988
 23
286.19230800000003
 33
0.0
  0
SOLID
  5
2B78
  8
WAKU
  6
CONTINUOUS
 10
380.31131299999993
 20
288.7769229999999
 30
0.0
 11
381.5248509999999
 21
288.7769229999999
 31
0.0
 12
383.69592799999992
 22
288.7769229999999
 32
0.0
 13
383.69592799999992
 23
288.7769229999999
 33
0.0
  0
SOLID
  5
2B79
  8
WAKU
  6
CONTINUOUS
 10
380.31131299999993
 20
288.7769229999999
 30
0.0
 11
377.15520499999991
 21
286.19230800000003
 31
0.0
 12
381.5248509999999
 22
288.7769229999999
 32
0.0
 13
381.5248509999999
 23
288.7769229999999
 33
0.0
  0
SOLID
  5
2B7A
  8
WAKU
  6
CONTINUOUS
 10
373.799148
 20
288.78192899999988
 30
0.0
 11
373.91694100000001
 21
288.683944
 31
0.0
 12
374.36348399999991
 22
288.64263
 32
0.0
 13
374.36348399999991
 23
288.64263
 33
0.0
  0
SOLID
  5
2B7B
  8
WAKU
  6
CONTINUOUS
 10
373.2908569999999
 20
288.83558099999988
 30
0.0
 11
371.92646400000001
 21
288.70701000000003
 31
0.0
 12
372.89513999999991
 22
288.74006500000002
 32
0.0
 13
372.89513999999991
 23
288.74006500000002
 33
0.0
  0
SOLID
  5
2B7C
  8
WAKU
  6
CONTINUOUS
 10
373.59799600000002
 20
288.84090200000003
 30
0.0
 11
373.799148
 21
288.78192899999988
 31
0.0
 12
374.36348399999991
 22
288.64263
 32
0.0
 13
374.36348399999991
 23
288.64263
 33
0.0
  0
SOLID
  5
2B7D
  8
WAKU
  6
CONTINUOUS
 10
401.25888099999997
 20
286.73076900000001
 30
0.0
 11
402.04281700000001
 21
288.884615
 31
0.0
 12
400.96589399999988
 22
288.884615
 32
0.0
 13
400.96589399999988
 23
288.884615
 33
0.0
  0
SOLID
  5
2B7E
  8
WAKU
  6
CONTINUOUS
 10
400.96589399999988
 20
288.884615
 30
0.0
 11
400.18195800000001
 21
286.73076900000001
 31
0.0
 12
401.25888099999997
 22
286.73076900000001
 32
0.0
 13
401.25888099999997
 23
286.73076900000001
 33
0.0
  0
SOLID
  5
2B7F
  8
WAKU
  6
CONTINUOUS
 10
401.42477599999989
 20
285.115385
 30
0.0
 11
403.87358699999999
 21
288.884615
 31
0.0
 12
402.79666299999991
 22
288.884615
 32
0.0
 13
402.79666299999991
 23
288.884615
 33
0.0
  0
SOLID
  5
2B80
  8
WAKU
  6
CONTINUOUS
 10
403.87358699999999
 20
288.884615
 30
0.0
 11
401.42477599999989
 21
285.115385
 31
0.0
 12
401.913747
 22
283.49999999999989
 32
0.0
 13
401.913747
 23
283.49999999999989
 33
0.0
  0
SOLID
  5
2B81
  8
WAKU
  6
CONTINUOUS
 10
399.858881
 20
286.73076900000001
 30
0.0
 11
400.64281699999992
 21
288.884615
 31
0.0
 12
399.56589400000001
 22
288.884615
 32
0.0
 13
399.56589400000001
 23
288.884615
 33
0.0
  0
SOLID
  5
2B82
  8
WAKU
  6
CONTINUOUS
 10
399.56589400000001
 20
288.884615
 30
0.0
 11
398.78195799999997
 21
286.73076900000001
 31
0.0
 12
399.858881
 22
286.73076900000001
 32
0.0
 13
399.858881
 23
286.73076900000001
 33
0.0
  0
SOLID
  5
2B83
  8
WAKU
  6
CONTINUOUS
 10
374.22530599999988
 20
288.92089499999997
 30
0.0
 11
373.59799600000002
 21
288.84090200000003
 31
0.0
 12
374.36348399999991
 22
288.64263
 32
0.0
 13
374.36348399999991
 23
288.64263
 33
0.0
  0
SOLID
  5
2B84
  8
WAKU
  6
CONTINUOUS
 10
372.41768300000001
 20
288.96864799999992
 30
0.0
 11
373.59799600000002
 21
288.84090200000003
 31
0.0
 12
374.22530599999988
 22
288.92089499999997
 32
0.0
 13
374.22530599999988
 23
288.92089499999997
 33
0.0
  0
SOLID
  5
2B85
  8
WAKU
  6
CONTINUOUS
 10
372.41768300000001
 20
288.96864799999992
 30
0.0
 11
373.2908569999999
 21
288.83558099999988
 31
0.0
 12
373.59799600000002
 22
288.84090200000003
 32
0.0
 13
373.59799600000002
 23
288.84090200000003
 33
0.0
  0
SOLID
  5
2B86
  8
WAKU
  6
CONTINUOUS
 10
372.41768300000001
 20
288.96864799999992
 30
0.0
 11
371.92646400000001
 21
288.70701000000003
 31
0.0
 12
373.2908569999999
 22
288.83558099999988
 32
0.0
 13
373.2908569999999
 23
288.83558099999988
 33
0.0
  0
SOLID
  5
2B87
  8
WAKU
  6
CONTINUOUS
 10
373.99882100000002
 20
289.11575699999992
 30
0.0
 11
372.41768300000001
 21
288.96864799999992
 31
0.0
 12
374.22530599999988
 22
288.92089499999997
 32
0.0
 13
374.22530599999988
 23
288.92089499999997
 33
0.0
  0
SOLID
  5
2B88
  8
WAKU
  6
CONTINUOUS
 10
372.88698799999992
 20
289.145129
 30
0.0
 11
372.41768300000001
 21
288.96864799999992
 31
0.0
 12
373.99882100000002
 22
289.11575699999992
 32
0.0
 13
373.99882100000002
 23
289.11575699999992
 33
0.0
  0
SOLID
  5
2B89
  8
WAKU
  6
CONTINUOUS
 10
398.33733100000001
 20
289.20769200000001
 30
0.0
 11
391.28784000000002
 21
287.592308
 31
0.0
 12
392.09553299999988
 22
287.592308
 32
0.0
 13
392.09553299999988
 23
287.592308
 33
0.0
  0
SOLID
  5
2B8A
  8
WAKU
  6
CONTINUOUS
 10
398.33733100000001
 20
289.20769200000001
 30
0.0
 11
392.09553299999988
 21
287.592308
 31
0.0
 12
397.74937899999998
 22
287.592308
 32
0.0
 13
397.74937899999998
 23
287.592308
 33
0.0
  0
SOLID
  5
2B8B
  8
WAKU
  6
CONTINUOUS
 10
391.28784000000002
 20
287.592308
 30
0.0
 11
398.33733100000001
 21
289.20769200000001
 31
0.0
 12
397.52963799999992
 22
289.20769200000001
 32
0.0
 13
397.52963799999992
 23
289.20769200000001
 33
0.0
  0
SOLID
  5
2B8C
  8
WAKU
  6
CONTINUOUS
 10
391.87579199999999
 20
289.20769200000001
 30
0.0
 11
391.28784000000002
 21
287.592308
 31
0.0
 12
397.52963799999992
 22
289.20769200000001
 32
0.0
 13
397.52963799999992
 23
289.20769200000001
 33
0.0
  0
SOLID
  5
2B8D
  8
WAKU
  6
CONTINUOUS
 10
397.52963799999992
 20
289.20769200000001
 30
0.0
 11
392.68348500000002
 21
289.20769200000001
 31
0.0
 12
391.87579199999999
 22
289.20769200000001
 32
0.0
 13
391.87579199999999
 23
289.20769200000001
 33
0.0
  0
SOLID
  5
2B8E
  8
WAKU
  6
CONTINUOUS
 10
393.76040799999993
 20
289.20769200000001
 30
0.0
 11
392.68348500000002
 21
289.20769200000001
 31
0.0
 12
397.52963799999992
 22
289.20769200000001
 32
0.0
 13
397.52963799999992
 23
289.20769200000001
 33
0.0
  0
SOLID
  5
2B8F
  8
WAKU
  6
CONTINUOUS
 10
397.52963799999992
 20
289.20769200000001
 30
0.0
 11
396.45271500000001
 21
289.20769200000001
 31
0.0
 12
393.76040799999993
 22
289.20769200000001
 32
0.0
 13
393.76040799999993
 23
289.20769200000001
 33
0.0
  0
SOLID
  5
2B90
  8
WAKU
  6
CONTINUOUS
 10
373.69234799999992
 20
289.22005999999988
 30
0.0
 11
372.88698799999992
 21
289.145129
 31
0.0
 12
373.99882100000002
 22
289.11575699999992
 32
0.0
 13
373.99882100000002
 23
289.11575699999992
 33
0.0
  0
SOLID
  5
2B91
  8
WAKU
  6
CONTINUOUS
 10
373.31714299999999
 20
289.22997199999998
 30
0.0
 11
372.88698799999992
 21
289.145129
 31
0.0
 12
373.69234799999992
 22
289.22005999999988
 32
0.0
 13
373.69234799999992
 23
289.22005999999988
 33
0.0
  0
SOLID
  5
2B92
  8
WAKU
  6
CONTINUOUS
 10
367.97127599999999
 20
286.22222199999999
 30
0.0
 11
372.24905299999989
 21
290.5
 31
0.0
 12
367.97127599999999
 22
290.5
 32
0.0
 13
367.97127599999999
 23
290.5
 33
0.0
  0
SOLID
  5
2B93
  8
WAKU
  6
CONTINUOUS
 10
409.21900499999998
 20
288.7769229999999
 30
0.0
 11
409.84615400000001
 21
290.5
 31
0.0
 12
406.615385
 22
290.5
 32
0.0
 13
406.615385
 23
290.5
 33
0.0
  0
SOLID
  5
2B94
  8
WAKU
  6
CONTINUOUS
 10
406.615385
 20
290.5
 30
0.0
 11
405.98823599999992
 21
288.7769229999999
 31
0.0
 12
409.21900499999998
 22
288.7769229999999
 32
0.0
 13
409.21900499999998
 23
288.7769229999999
 33
0.0
  0
SOLID
  5
2B95
  8
WAKU
  6
CONTINUOUS
 10
409.15922099999989
 20
285.65384599999987
 30
0.0
 11
412.0
 21
290.5
 31
0.0
 12
410.92307699999992
 22
290.5
 32
0.0
 13
410.92307699999992
 23
290.5
 33
0.0
  0
SOLID
  5
2B96
  8
WAKU
  6
CONTINUOUS
 10
412.0
 20
290.5
 30
0.0
 11
409.15922099999989
 21
285.65384599999987
 31
0.0
 12
409.45220799999993
 22
283.49999999999989
 32
0.0
 13
409.45220799999993
 23
283.49999999999989
 33
0.0
  0
SOLID
  5
2B97
  8
WAKU
  6
CONTINUOUS
 10
378.0959279999999
 20
288.7769229999999
 30
0.0
 11
384.32307700000001
 21
290.5
 31
0.0
 12
378.72307699999988
 22
290.5
 32
0.0
 13
378.72307699999988
 23
290.5
 33
0.0
  0
SOLID
  5
2B98
  8
WAKU
  6
CONTINUOUS
 10
384.32307700000001
 20
290.5
 30
0.0
 11
378.0959279999999
 21
288.7769229999999
 31
0.0
 12
380.31131299999993
 22
288.7769229999999
 32
0.0
 13
380.31131299999993
 23
288.7769229999999
 33
0.0
  0
SOLID
  5
2B99
  8
WAKU
  6
CONTINUOUS
 10
384.32307700000001
 20
290.5
 30
0.0
 11
380.31131299999993
 21
288.7769229999999
 31
0.0
 12
383.69592799999992
 22
288.7769229999999
 32
0.0
 13
383.69592799999992
 23
288.7769229999999
 33
0.0
  0
SOLID
  5
2B9A
  8
WAKU
  6
CONTINUOUS
 10
390.37285099999991
 20
288.7769229999999
 30
0.0
 11
391.0
 21
290.5
 31
0.0
 12
385.615385
 22
290.5
 32
0.0
 13
385.615385
 23
290.5
 33
0.0
  0
SOLID
  5
2B9B
  8
WAKU
  6
CONTINUOUS
 10
385.615385
 20
290.5
 30
0.0
 11
384.98823599999992
 21
288.7769229999999
 31
0.0
 12
390.37285099999991
 22
288.7769229999999
 32
0.0
 13
390.37285099999991
 23
288.7769229999999
 33
0.0
  0
SOLID
  5
2B9C
  8
WAKU
  6
CONTINUOUS
 10
393.76040799999993
 20
289.20769200000001
 30
0.0
 11
394.23076900000001
 21
290.5
 31
0.0
 12
393.15384599999999
 22
290.5
 32
0.0
 13
393.15384599999999
 23
290.5
 33
0.0
  0
SOLID
  5
2B9D
  8
WAKU
  6
CONTINUOUS
 10
393.15384599999999
 20
290.5
 30
0.0
 11
392.68348500000002
 21
289.20769200000001
 31
0.0
 12
393.76040799999993
 22
289.20769200000001
 32
0.0
 13
393.76040799999993
 23
289.20769200000001
 33
0.0
  0
SOLID
  5
2B9E
  8
WAKU
  6
CONTINUOUS
 10
396.45271500000001
 20
289.20769200000001
 30
0.0
 11
398.0
 21
290.5
 31
0.0
 12
396.92307699999992
 22
290.5
 32
0.0
 13
396.92307699999992
 23
290.5
 33
0.0
  0
SOLID
  5
2B9F
  8
WAKU
  6
CONTINUOUS
 10
398.0
 20
290.5
 30
0.0
 11
396.45271500000001
 21
289.20769200000001
 31
0.0
 12
397.52963799999992
 22
289.20769200000001
 32
0.0
 13
397.52963799999992
 23
289.20769200000001
 33
0.0
  0
ENDBLK
  5
2BA1
  8
0
  0
ENDSEC
  0
SECTION
  2
ENTITIES
  0
LINE
  5
43
  8
WAKU
 10
755.0
 20
505.0
 30
0.0
 11
755.0
 21
5.0
 31
0.0
  0
LINE
  5
46
  8
WAKU
 10
5.0
 20
505.0
 30
0.0
 11
5.0
 21
5.0
 31
0.0
  0
LINE
  5
55
  8
WAKU
 10
5.0
 20
5.0
 30
0.0
 11
755.0
 21
5.0
 31
0.0
  0
TEXT
  5
562
  8
WAKU
 10
34.469413000000003
 20
497.67056799999989
 30
0.0
 40
5.0
  1
外動片引き窓 面付け枠断面詳細図  S100G016.dxf
 41
0.9769999999999999
  0
LINE
  5
572
  8
WAKU
 10
5.0
 20
495.0
 30
0.0
 11
755.0
 21
495.0
 31
0.0
  0
TEXT
  5
629
  8
WAKU
 10
10.048814999999991
 20
498.43971699999997
 30
0.0
 40
3.0
  1
FNS-100
 41
0.8759999999999998
  0
LINE
  5
CBC
  8
WAKU
  6
CONTINUOUS
 10
733.76040799999998
 20
502.20769199999989
 30
0.0
 11
736.45271500000001
 21
502.20769199999989
 31
0.0
  0
LINE
  5
CBD
  8
WAKU
  6
CONTINUOUS
 10
733.17245600000001
 20
500.592308
 30
0.0
 11
735.86476300000004
 21
500.592308
 31
0.0
  0
LINE
  5
CBE
  8
WAKU
  6
CONTINUOUS
 10
730.39066999999989
 20
496.49999999999989
 30
0.0
 11
735.45220800000004
 21
496.49999999999989
 31
0.0
  0
LINE
  5
CBF
  8
WAKU
  6
CONTINUOUS
 10
735.15922099999989
 20
498.65384599999999
 30
0.0
 11
735.86476300000004
 21
500.592308
 31
0.0
  0
LINE
  5
CC0
  8
WAKU
  6
CONTINUOUS
 10
707.97127599999988
 20
503.5
 30
0.0
 11
712.249053
 21
503.5
 31
0.0
  0
LINE
  5
CC1
  8
WAKU
  6
CONTINUOUS
 10
707.97127599999988
 20
499.22222199999999
 30
0.0
 11
712.249053
 21
503.5
 31
0.0
  0
LINE
  5
CC2
  8
WAKU
  6
CONTINUOUS
 10
707.97127599999988
 20
503.5
 30
0.0
 11
707.97127599999988
 21
499.22222199999999
 31
0.0
  0
LINE
  5
CC3
  8
WAKU
  6
CONTINUOUS
 10
721.52485100000001
 20
501.77692300000001
 30
0.0
 11
723.69592799999987
 21
501.77692300000001
 31
0.0
  0
LINE
  5
CC4
  8
WAKU
  6
CONTINUOUS
 10
718.72307699999999
 20
503.5
 30
0.0
 11
724.32307700000001
 21
503.5
 31
0.0
  0
LINE
  5
CC5
  8
WAKU
  6
CONTINUOUS
 10
720.31131300000004
 20
501.77692300000001
 30
0.0
 11
717.15520500000002
 21
499.19230800000003
 31
0.0
  0
LINE
  5
CC6
  8
WAKU
  6
CONTINUOUS
 10
721.52485100000001
 20
501.77692300000001
 30
0.0
 11
722.75520499999993
 21
499.19230800000003
 31
0.0
  0
LINE
  5
CC7
  8
WAKU
  6
CONTINUOUS
 10
716.17528499999992
 20
496.49999999999989
 30
0.0
 11
717.15520500000002
 21
499.19230800000003
 31
0.0
  0
LINE
  5
CC8
  8
WAKU
  6
CONTINUOUS
 10
719.39714500000002
 20
499.13846199999989
 30
0.0
 11
716.17528499999992
 21
496.49999999999989
 31
0.0
  0
LINE
  5
CC9
  8
WAKU
  6
CONTINUOUS
 10
721.77528499999994
 20
496.49999999999989
 30
0.0
 11
722.75520499999993
 21
499.19230800000003
 31
0.0
  0
LINE
  5
CCA
  8
WAKU
  6
CONTINUOUS
 10
720.49366699999985
 20
499.19230800000003
 30
0.0
 11
721.77528499999994
 21
496.49999999999989
 31
0.0
  0
LINE
  5
CCB
  8
WAKU
  6
CONTINUOUS
 10
719.51374699999985
 20
496.49999999999989
 30
0.0
 11
720.49366699999985
 21
499.19230800000003
 31
0.0
  0
LINE
  5
CCC
  8
WAKU
  6
CONTINUOUS
 10
718.436824
 20
496.49999999999989
 30
0.0
 11
719.51374699999985
 21
496.49999999999989
 31
0.0
  0
LINE
  5
CCD
  8
WAKU
  6
CONTINUOUS
 10
718.436824
 20
496.49999999999989
 30
0.0
 11
719.39714500000002
 21
499.13846199999989
 31
0.0
  0
LINE
  5
CCE
  8
WAKU
  6
CONTINUOUS
 10
718.09592799999996
 20
501.77692300000001
 30
0.0
 11
720.31131300000004
 21
501.77692300000001
 31
0.0
  0
LINE
  5
CCF
  8
WAKU
  6
CONTINUOUS
 10
718.72307699999999
 20
503.5
 30
0.0
 11
718.09592799999996
 21
501.77692300000001
 31
0.0
  0
LINE
  5
CD0
  8
WAKU
  6
CONTINUOUS
 10
732.78048799999999
 20
499.51538499999998
 30
0.0
 11
733.17245600000001
 21
500.592308
 31
0.0
  0
LINE
  5
CD1
  8
WAKU
  6
CONTINUOUS
 10
731.70356500000003
 20
499.51538499999998
 30
0.0
 11
732.09553300000005
 21
500.592308
 31
0.0
  0
LINE
  5
CD2
  8
WAKU
  6
CONTINUOUS
 10
728.45220800000004
 20
496.49999999999989
 30
0.0
 11
729.23614399999997
 21
498.65384599999999
 31
0.0
  0
LINE
  5
CD3
  8
WAKU
  6
CONTINUOUS
 10
723.85152900000003
 20
498.65384599999999
 30
0.0
 11
729.23614399999997
 21
498.65384599999999
 31
0.0
  0
LINE
  5
CD4
  8
WAKU
  6
CONTINUOUS
 10
723.06759299999999
 20
496.49999999999989
 30
0.0
 11
723.85152900000003
 21
498.65384599999999
 31
0.0
  0
LINE
  5
CD5
  8
WAKU
  6
CONTINUOUS
 10
723.06759299999999
 20
496.49999999999989
 30
0.0
 11
728.45220800000004
 21
496.49999999999989
 31
0.0
  0
LINE
  5
CD6
  8
WAKU
  6
CONTINUOUS
 10
731.17460599999993
 20
498.65384599999999
 30
0.0
 11
735.15922099999989
 21
498.65384599999999
 31
0.0
  0
LINE
  5
CD7
  8
WAKU
  6
CONTINUOUS
 10
731.70356500000003
 20
499.51538499999998
 30
0.0
 11
732.78048799999999
 21
499.51538499999998
 31
0.0
  0
LINE
  5
CD8
  8
WAKU
  6
CONTINUOUS
 10
730.39066999999989
 20
496.49999999999989
 30
0.0
 11
731.17460599999993
 21
498.65384599999999
 31
0.0
  0
LINE
  5
CD9
  8
WAKU
  6
CONTINUOUS
 10
724.98823600000003
 20
501.77692300000001
 30
0.0
 11
730.37285099999997
 21
501.77692300000001
 31
0.0
  0
LINE
  5
CDA
  8
WAKU
  6
CONTINUOUS
 10
725.61538499999995
 20
503.5
 30
0.0
 11
731.0
 21
503.5
 31
0.0
  0
LINE
  5
CDB
  8
WAKU
  6
CONTINUOUS
 10
724.98823600000003
 20
501.77692300000001
 30
0.0
 11
725.61538499999995
 21
503.5
 31
0.0
  0
LINE
  5
CDC
  8
WAKU
  6
CONTINUOUS
 10
724.32307700000001
 20
503.5
 30
0.0
 11
723.69592799999987
 21
501.77692300000001
 31
0.0
  0
LINE
  5
CDD
  8
WAKU
  6
CONTINUOUS
 10
733.15384600000004
 20
503.5
 30
0.0
 11
734.23076900000001
 21
503.5
 31
0.0
  0
LINE
  5
CDE
  8
WAKU
  6
CONTINUOUS
 10
733.76040799999998
 20
502.20769199999989
 30
0.0
 11
734.23076900000001
 21
503.5
 31
0.0
  0
LINE
  5
CDF
  8
WAKU
  6
CONTINUOUS
 10
731.87579200000005
 20
502.20769199999989
 30
0.0
 11
732.68348500000002
 21
502.20769199999989
 31
0.0
  0
LINE
  5
CE0
  8
WAKU
  6
CONTINUOUS
 10
731.28783999999996
 20
500.592308
 30
0.0
 11
732.09553300000005
 21
500.592308
 31
0.0
  0
LINE
  5
CE1
  8
WAKU
  6
CONTINUOUS
 10
731.28783999999996
 20
500.592308
 30
0.0
 11
731.87579200000005
 21
502.20769199999989
 31
0.0
  0
LINE
  5
CE2
  8
WAKU
  6
CONTINUOUS
 10
732.68348500000002
 20
502.20769199999989
 30
0.0
 11
733.15384600000004
 21
503.5
 31
0.0
  0
LINE
  5
CE3
  8
WAKU
  6
CONTINUOUS
 10
730.37285099999997
 20
501.77692300000001
 30
0.0
 11
731.0
 21
503.5
 31
0.0
  0
LINE
  5
CE4
  8
WAKU
  6
CONTINUOUS
 10
745.75305500000002
 20
501.13076899999999
 30
0.0
 11
748.98382400000003
 21
501.13076899999999
 31
0.0
  0
LINE
  5
CE5
  8
WAKU
  6
CONTINUOUS
 10
745.28269399999999
 20
499.83846199999999
 30
0.0
 11
748.513463
 21
499.83846199999999
 31
0.0
  0
LINE
  5
CE6
  8
WAKU
  6
CONTINUOUS
 10
749.45220800000004
 20
496.49999999999989
 30
0.0
 11
744.06759299999999
 21
496.49999999999989
 31
0.0
  0
LINE
  5
CE7
  8
WAKU
  6
CONTINUOUS
 10
744.85152900000003
 20
498.65384599999999
 30
0.0
 11
749.159221
 21
498.65384599999999
 31
0.0
  0
LINE
  5
CE8
  8
WAKU
  6
CONTINUOUS
 10
745.98823600000003
 20
501.77692300000001
 30
0.0
 11
749.21900499999992
 21
501.77692300000001
 31
0.0
  0
LINE
  5
CE9
  8
WAKU
  6
CONTINUOUS
 10
746.61538499999995
 20
503.5
 30
0.0
 11
749.84615399999996
 21
503.5
 31
0.0
  0
LINE
  5
CEA
  8
WAKU
  6
CONTINUOUS
 10
738.78195800000003
 20
499.73076900000001
 30
0.0
 11
739.56589399999996
 21
501.884615
 31
0.0
  0
LINE
  5
CEB
  8
WAKU
  6
CONTINUOUS
 10
740.18195800000001
 20
499.73076900000001
 30
0.0
 11
740.96589400000005
 21
501.884615
 31
0.0
  0
LINE
  5
CEC
  8
WAKU
  6
CONTINUOUS
 10
739.85888099999988
 20
499.73076900000001
 30
0.0
 11
740.64281700000004
 21
501.884615
 31
0.0
  0
LINE
  5
CED
  8
WAKU
  6
CONTINUOUS
 10
741.25888099999986
 20
499.73076900000001
 30
0.0
 11
742.04281700000001
 21
501.884615
 31
0.0
  0
LINE
  5
CEE
  8
WAKU
  6
CONTINUOUS
 10
741.91374699999994
 20
496.49999999999989
 30
0.0
 11
743.87358700000004
 21
501.884615
 31
0.0
  0
LINE
  5
CEF
  8
WAKU
  6
CONTINUOUS
 10
741.42477599999995
 20
498.11538499999989
 30
0.0
 11
742.79666299999997
 21
501.884615
 31
0.0
  0
LINE
  5
CF0
  8
WAKU
  6
CONTINUOUS
 10
735.45220800000004
 20
496.49999999999989
 30
0.0
 11
736.941687
 21
500.592308
 31
0.0
  0
LINE
  5
CF1
  8
WAKU
  6
CONTINUOUS
 10
737.60605499999997
 20
496.49999999999989
 30
0.0
 11
741.91374699999994
 21
496.49999999999989
 31
0.0
  0
LINE
  5
CF2
  8
WAKU
  6
CONTINUOUS
 10
738.78195800000003
 20
499.73076900000001
 30
0.0
 11
739.85888099999988
 21
499.73076900000001
 31
0.0
  0
LINE
  5
CF3
  8
WAKU
  6
CONTINUOUS
 10
738.19400599999994
 20
498.11538499999989
 30
0.0
 11
741.42477599999995
 21
498.11538499999989
 31
0.0
  0
LINE
  5
CF4
  8
WAKU
  6
CONTINUOUS
 10
737.60605499999997
 20
496.49999999999989
 30
0.0
 11
738.19400599999994
 21
498.11538499999989
 31
0.0
  0
LINE
  5
CF5
  8
WAKU
  6
CONTINUOUS
 10
740.18195800000001
 20
499.73076900000001
 30
0.0
 11
741.25888099999986
 21
499.73076900000001
 31
0.0
  0
LINE
  5
CF6
  8
WAKU
  6
CONTINUOUS
 10
744.06759299999999
 20
496.49999999999989
 30
0.0
 11
744.85152900000003
 21
498.65384599999999
 31
0.0
  0
LINE
  5
CF7
  8
WAKU
  6
CONTINUOUS
 10
740.96589400000005
 20
501.884615
 30
0.0
 11
742.04281700000001
 21
501.884615
 31
0.0
  0
LINE
  5
CF8
  8
WAKU
  6
CONTINUOUS
 10
736.92307699999992
 20
503.5
 30
0.0
 11
738.0
 21
503.5
 31
0.0
  0
LINE
  5
CF9
  8
WAKU
  6
CONTINUOUS
 10
737.52963799999986
 20
502.20769199999989
 30
0.0
 11
738.0
 21
503.5
 31
0.0
  0
LINE
  5
CFA
  8
WAKU
  6
CONTINUOUS
 10
737.52963799999986
 20
502.20769199999989
 30
0.0
 11
738.33733099999995
 21
502.20769199999989
 31
0.0
  0
LINE
  5
CFB
  8
WAKU
  6
CONTINUOUS
 10
736.941687
 20
500.592308
 30
0.0
 11
737.74937899999986
 21
500.592308
 31
0.0
  0
LINE
  5
CFC
  8
WAKU
  6
CONTINUOUS
 10
737.74937899999986
 20
500.592308
 30
0.0
 11
738.33733099999995
 21
502.20769199999989
 31
0.0
  0
LINE
  5
CFD
  8
WAKU
  6
CONTINUOUS
 10
739.56589399999996
 20
501.884615
 30
0.0
 11
740.64281700000004
 21
501.884615
 31
0.0
  0
LINE
  5
CFE
  8
WAKU
  6
CONTINUOUS
 10
736.45271500000001
 20
502.20769199999989
 30
0.0
 11
736.92307699999992
 21
503.5
 31
0.0
  0
LINE
  5
CFF
  8
WAKU
  6
CONTINUOUS
 10
746.61538499999995
 20
503.5
 30
0.0
 11
745.98823600000003
 21
501.77692300000001
 31
0.0
  0
LINE
  5
D00
  8
WAKU
  6
CONTINUOUS
 10
745.75305500000002
 20
501.13076899999999
 30
0.0
 11
745.28269399999999
 21
499.83846199999999
 31
0.0
  0
LINE
  5
D01
  8
WAKU
  6
CONTINUOUS
 10
742.79666299999997
 20
501.884615
 30
0.0
 11
743.87358700000004
 21
501.884615
 31
0.0
  0
LINE
  5
D02
  8
WAKU
  6
CONTINUOUS
 10
749.159221
 20
498.65384599999999
 30
0.0
 11
750.92307699999992
 21
503.5
 31
0.0
  0
LINE
  5
D03
  8
WAKU
  6
CONTINUOUS
 10
749.45220800000004
 20
496.49999999999989
 30
0.0
 11
752.0
 21
503.5
 31
0.0
  0
LINE
  5
D04
  8
WAKU
  6
CONTINUOUS
 10
749.21900499999992
 20
501.77692300000001
 30
0.0
 11
749.84615399999996
 21
503.5
 31
0.0
  0
LINE
  5
D05
  8
WAKU
  6
CONTINUOUS
 10
750.92307699999992
 20
503.5
 30
0.0
 11
752.0
 21
503.5
 31
0.0
  0
LINE
  5
D06
  8
WAKU
  6
CONTINUOUS
 10
748.513463
 20
499.83846199999999
 30
0.0
 11
748.98382400000003
 21
501.13076899999999
 31
0.0
  0
LINE
  5
D07
  8
WAKU
  6
CONTINUOUS
 10
709.82864600000005
 20
497.10779099999991
 30
0.0
 11
709.96682399999986
 21
496.82952599999987
 31
0.0
  0
LINE
  5
D08
  8
WAKU
  6
CONTINUOUS
 10
709.96682399999986
 20
496.82952599999987
 30
0.0
 11
710.193309
 21
496.63466399999999
 31
0.0
  0
LINE
  5
D09
  8
WAKU
  6
CONTINUOUS
 10
710.193309
 20
496.63466399999999
 30
0.0
 11
710.49978199999998
 21
496.53036100000003
 31
0.0
  0
LINE
  5
D0A
  8
WAKU
  6
CONTINUOUS
 10
710.49978199999998
 20
496.53036100000003
 30
0.0
 11
710.87498700000003
 21
496.52044899999999
 31
0.0
  0
LINE
  5
D0B
  8
WAKU
  6
CONTINUOUS
 10
710.87498700000003
 20
496.52044899999999
 30
0.0
 11
711.30514200000005
 21
496.60529100000002
 31
0.0
  0
LINE
  5
D0C
  8
WAKU
  6
CONTINUOUS
 10
711.30514200000005
 20
496.60529100000002
 30
0.0
 11
711.77444799999989
 21
496.78177299999999
 31
0.0
  0
LINE
  5
D0D
  8
WAKU
  6
CONTINUOUS
 10
711.77444799999989
 20
496.78177299999999
 30
0.0
 11
712.26566600000001
 21
497.04341099999999
 31
0.0
  0
LINE
  5
D0E
  8
WAKU
  6
CONTINUOUS
 10
712.26566600000001
 20
497.04341099999999
 30
0.0
 11
712.76075600000001
 21
497.38059500000003
 31
0.0
  0
LINE
  5
D0F
  8
WAKU
  6
CONTINUOUS
 10
712.76075600000001
 20
497.38059500000003
 30
0.0
 11
713.24153199999989
 21
497.78094099999998
 31
0.0
  0
LINE
  5
D10
  8
WAKU
  6
CONTINUOUS
 10
713.24153199999989
 20
497.78094099999998
 30
0.0
 11
713.69033499999989
 21
498.22974399999998
 31
0.0
  0
LINE
  5
D11
  8
WAKU
  6
CONTINUOUS
 10
713.69033499999989
 20
498.22974399999998
 30
0.0
 11
714.09068099999979
 21
498.71051999999997
 31
0.0
  0
LINE
  5
D12
  8
WAKU
  6
CONTINUOUS
 10
714.09068099999979
 20
498.71051999999997
 30
0.0
 11
714.427865
 21
499.20560899999998
 31
0.0
  0
LINE
  5
D13
  8
WAKU
  6
CONTINUOUS
 10
714.427865
 20
499.20560899999998
 30
0.0
 11
714.68950299999995
 21
499.69682799999998
 31
0.0
  0
LINE
  5
D14
  8
WAKU
  6
CONTINUOUS
 10
714.68950299999995
 20
499.69682799999998
 30
0.0
 11
714.86598400000003
 21
500.166134
 31
0.0
  0
LINE
  5
D15
  8
WAKU
  6
CONTINUOUS
 10
714.86598400000003
 20
500.166134
 30
0.0
 11
714.950827
 21
500.5962889999999
 31
0.0
  0
LINE
  5
D16
  8
WAKU
  6
CONTINUOUS
 10
714.950827
 20
500.5962889999999
 30
0.0
 11
714.94091500000002
 21
500.9714929999999
 31
0.0
  0
LINE
  5
D17
  8
WAKU
  6
CONTINUOUS
 10
714.94091500000002
 20
500.9714929999999
 30
0.0
 11
714.83661199999995
 21
501.27796699999988
 31
0.0
  0
LINE
  5
D18
  8
WAKU
  6
CONTINUOUS
 10
714.83661199999995
 20
501.27796699999988
 30
0.0
 11
714.641749
 21
501.50445200000001
 31
0.0
  0
LINE
  5
D19
  8
WAKU
  6
CONTINUOUS
 10
714.641749
 20
501.50445200000001
 30
0.0
 11
714.36348399999986
 21
501.64263
 31
0.0
  0
LINE
  5
D1A
  8
WAKU
  6
CONTINUOUS
 10
713.91694099999995
 20
501.683944
 30
0.0
 11
713.48263599999996
 21
501.60801399999991
 31
0.0
  0
LINE
  5
D1B
  8
WAKU
  6
CONTINUOUS
 10
713.48263599999996
 20
501.60801399999991
 30
0.0
 11
713.00563899999997
 21
501.43576799999988
 31
0.0
  0
LINE
  5
D1C
  8
WAKU
  6
CONTINUOUS
 10
713.00563899999997
 20
501.43576799999988
 30
0.0
 11
712.50426900000002
 21
501.17382099999992
 31
0.0
  0
LINE
  5
D1D
  8
WAKU
  6
CONTINUOUS
 10
712.50426900000002
 20
501.17382099999992
 30
0.0
 11
711.99778300000003
 21
500.83223499999991
 31
0.0
  0
LINE
  5
D1E
  8
WAKU
  6
CONTINUOUS
 10
711.99778300000003
 20
500.83223499999991
 30
0.0
 11
711.50563199999988
 21
500.424128
 31
0.0
  0
LINE
  5
D1F
  8
WAKU
  6
CONTINUOUS
 10
711.50563199999988
 20
500.424128
 30
0.0
 11
711.04672000000005
 21
499.96517399999999
 31
0.0
  0
LINE
  5
D20
  8
WAKU
  6
CONTINUOUS
 10
711.04672000000005
 20
499.96517399999999
 30
0.0
 11
710.63867100000004
 21
499.47300000000001
 31
0.0
  0
LINE
  5
D21
  8
WAKU
  6
CONTINUOUS
 10
710.63867100000004
 20
499.47300000000001
 30
0.0
 11
710.29715599999997
 21
498.96650899999992
 31
0.0
  0
LINE
  5
D22
  8
WAKU
  6
CONTINUOUS
 10
710.29715599999997
 20
498.96650899999992
 30
0.0
 11
710.03529300000002
 21
498.46515399999993
 31
0.0
  0
LINE
  5
D23
  8
WAKU
  6
CONTINUOUS
 10
710.03529300000002
 20
498.46515399999993
 30
0.0
 11
709.86313899999993
 21
497.98818899999992
 31
0.0
  0
LINE
  5
D24
  8
WAKU
  6
CONTINUOUS
 10
709.86313899999993
 20
497.98818899999992
 30
0.0
 11
709.78730499999995
 21
497.55393500000002
 31
0.0
  0
LINE
  5
D25
  8
WAKU
  6
CONTINUOUS
 10
710.17291099999989
 20
497.45185599999991
 30
0.0
 11
710.68139500000007
 21
497.53919500000001
 31
0.0
  0
LINE
  5
D26
  8
WAKU
  6
CONTINUOUS
 10
710.68139500000007
 20
497.53919500000001
 30
0.0
 11
711.31226300000003
 21
497.81033200000002
 31
0.0
  0
LINE
  5
D27
  8
WAKU
  6
CONTINUOUS
 10
711.31226300000003
 20
497.81033200000002
 30
0.0
 11
711.98994000000005
 21
498.25143100000003
 31
0.0
  0
LINE
  5
D28
  8
WAKU
  6
CONTINUOUS
 10
711.98994000000005
 20
498.25143100000003
 30
0.0
 11
712.64629600000001
 21
498.8255059999999
 31
0.0
  0
LINE
  5
D29
  8
WAKU
  6
CONTINUOUS
 10
712.64629600000001
 20
498.8255059999999
 30
0.0
 11
713.22023799999988
 21
499.48192
 31
0.0
  0
LINE
  5
D2A
  8
WAKU
  6
CONTINUOUS
 10
713.22023799999988
 20
499.48192
 30
0.0
 11
713.66135299999996
 21
500.15953400000001
 31
0.0
  0
LINE
  5
D2B
  8
WAKU
  6
CONTINUOUS
 10
713.66135299999996
 20
500.15953400000001
 30
0.0
 11
713.93207099999995
 21
500.79040199999992
 31
0.0
  0
LINE
  5
D2C
  8
WAKU
  6
CONTINUOUS
 10
713.93207099999995
 20
500.79040199999992
 30
0.0
 11
714.01922899999988
 21
501.29856899999999
 31
0.0
  0
LINE
  5
D2D
  8
WAKU
  6
CONTINUOUS
 10
713.91694099999995
 20
501.683944
 30
0.0
 11
713.79914800000006
 21
501.78192899999999
 31
0.0
  0
LINE
  5
D2E
  8
WAKU
  6
CONTINUOUS
 10
713.79914800000006
 20
501.78192899999999
 30
0.0
 11
713.59799599999997
 21
501.84090199999991
 31
0.0
  0
LINE
  5
D2F
  8
WAKU
  6
CONTINUOUS
 10
713.59799599999997
 20
501.84090199999991
 30
0.0
 11
713.29085699999996
 21
501.83558099999988
 31
0.0
  0
LINE
  5
D30
  8
WAKU
  6
CONTINUOUS
 10
713.29085699999996
 20
501.83558099999988
 30
0.0
 11
712.89513999999997
 21
501.7400649999999
 31
0.0
  0
LINE
  5
D31
  8
WAKU
  6
CONTINUOUS
 10
712.89513999999997
 20
501.7400649999999
 30
0.0
 11
712.44023499999992
 21
501.54758499999991
 31
0.0
  0
LINE
  5
D32
  8
WAKU
  6
CONTINUOUS
 10
712.44023499999992
 20
501.54758499999991
 30
0.0
 11
711.95458699999995
 21
501.26428399999992
 31
0.0
  0
LINE
  5
D33
  8
WAKU
  6
CONTINUOUS
 10
711.95458699999995
 20
501.26428399999992
 30
0.0
 11
710.99609800000007
 21
500.47510799999998
 31
0.0
  0
LINE
  5
D34
  8
WAKU
  6
CONTINUOUS
 10
710.99609800000007
 20
500.47510799999998
 30
0.0
 11
710.20703499999991
 21
499.51657
 31
0.0
  0
LINE
  5
D35
  8
WAKU
  6
CONTINUOUS
 10
710.20703499999991
 20
499.51657
 30
0.0
 11
709.92351900000006
 21
499.03102799999999
 31
0.0
  0
LINE
  5
D36
  8
WAKU
  6
CONTINUOUS
 10
709.92351900000006
 20
499.03102799999999
 30
0.0
 11
709.73149000000001
 21
498.57602099999991
 31
0.0
  0
LINE
  5
D37
  8
WAKU
  6
CONTINUOUS
 10
709.73149000000001
 20
498.57602099999991
 30
0.0
 11
709.63569600000005
 21
498.18040400000001
 31
0.0
  0
LINE
  5
D38
  8
WAKU
  6
CONTINUOUS
 10
709.63569600000005
 20
498.18040400000001
 30
0.0
 11
709.63035799999989
 21
497.87308699999988
 31
0.0
  0
LINE
  5
D39
  8
WAKU
  6
CONTINUOUS
 10
709.63035799999989
 20
497.87308699999988
 30
0.0
 11
709.68915500000003
 21
497.67243499999989
 31
0.0
  0
LINE
  5
D3A
  8
WAKU
  6
CONTINUOUS
 10
709.68915500000003
 20
497.67243499999989
 30
0.0
 11
709.78730499999995
 21
497.55393500000002
 31
0.0
  0
LINE
  5
D3B
  8
WAKU
  6
CONTINUOUS
 10
710.27517699999999
 20
497.06647600000002
 30
0.0
 11
710.39292699999999
 21
496.96856799999989
 31
0.0
  0
LINE
  5
D3C
  8
WAKU
  6
CONTINUOUS
 10
710.39292699999999
 20
496.96856799999989
 30
0.0
 11
710.59417699999995
 21
496.90949799999999
 31
0.0
  0
LINE
  5
D3D
  8
WAKU
  6
CONTINUOUS
 10
710.59417699999995
 20
496.90949799999999
 30
0.0
 11
710.90129400000001
 21
496.91486299999991
 31
0.0
  0
LINE
  5
D3E
  8
WAKU
  6
CONTINUOUS
 10
710.90129400000001
 20
496.91486299999991
 30
0.0
 11
711.29698399999995
 21
497.01036800000003
 31
0.0
  0
LINE
  5
D3F
  8
WAKU
  6
CONTINUOUS
 10
711.29698399999995
 20
497.01036800000003
 30
0.0
 11
711.75188200000002
 21
497.20279799999997
 31
0.0
  0
LINE
  5
D40
  8
WAKU
  6
CONTINUOUS
 10
711.75188200000002
 20
497.20279799999997
 30
0.0
 11
712.23749699999996
 21
497.48611699999992
 31
0.0
  0
LINE
  5
D41
  8
WAKU
  6
CONTINUOUS
 10
712.23749699999996
 20
497.48611699999992
 30
0.0
 11
713.19596499999989
 21
498.27523200000002
 31
0.0
  0
LINE
  5
D42
  8
WAKU
  6
CONTINUOUS
 10
713.19596499999989
 20
498.27523200000002
 30
0.0
 11
713.98505
 21
499.2337179999999
 31
0.0
  0
LINE
  5
D43
  8
WAKU
  6
CONTINUOUS
 10
713.98505
 20
499.2337179999999
 30
0.0
 11
714.26850699999989
 21
499.71927799999997
 31
0.0
  0
LINE
  5
D44
  8
WAKU
  6
CONTINUOUS
 10
714.26850699999989
 20
499.71927799999997
 30
0.0
 11
714.46070999999995
 21
500.17424799999998
 31
0.0
  0
LINE
  5
D45
  8
WAKU
  6
CONTINUOUS
 10
714.46070999999995
 20
500.17424799999998
 30
0.0
 11
714.55636100000004
 21
500.56986399999988
 31
0.0
  0
LINE
  5
D46
  8
WAKU
  6
CONTINUOUS
 10
714.55636100000004
 20
500.56986399999988
 30
0.0
 11
714.56180199999994
 21
500.877253
 31
0.0
  0
LINE
  5
D47
  8
WAKU
  6
CONTINUOUS
 10
714.56180199999994
 20
500.877253
 30
0.0
 11
714.50295099999994
 21
501.0779179999999
 31
0.0
  0
LINE
  5
D48
  8
WAKU
  6
CONTINUOUS
 10
714.50295099999994
 20
501.0779179999999
 30
0.0
 11
714.40481
 21
501.19624900000002
 31
0.0
  0
LINE
  5
D49
  8
WAKU
  6
CONTINUOUS
 10
714.01922899999988
 20
501.29856899999999
 30
0.0
 11
713.51073799999995
 21
501.21123999999998
 31
0.0
  0
LINE
  5
D4A
  8
WAKU
  6
CONTINUOUS
 10
713.51073799999995
 20
501.21123999999998
 30
0.0
 11
712.87987800000008
 21
500.94005700000002
 31
0.0
  0
LINE
  5
D4B
  8
WAKU
  6
CONTINUOUS
 10
712.87987800000008
 20
500.94005700000002
 30
0.0
 11
712.20218099999988
 21
500.49899099999988
 31
0.0
  0
LINE
  5
D4C
  8
WAKU
  6
CONTINUOUS
 10
712.20218099999988
 20
500.49899099999988
 30
0.0
 11
711.54582699999992
 21
499.924893
 31
0.0
  0
LINE
  5
D4D
  8
WAKU
  6
CONTINUOUS
 10
711.54582699999992
 20
499.924893
 30
0.0
 11
710.97189600000002
 21
499.26847099999992
 31
0.0
  0
LINE
  5
D4E
  8
WAKU
  6
CONTINUOUS
 10
710.97189600000002
 20
499.26847099999992
 30
0.0
 11
710.53071199999988
 21
498.59087499999998
 31
0.0
  0
LINE
  5
D4F
  8
WAKU
  6
CONTINUOUS
 10
710.53071199999988
 20
498.59087499999998
 30
0.0
 11
710.26016800000002
 21
497.959969
 31
0.0
  0
LINE
  5
D50
  8
WAKU
  6
CONTINUOUS
 10
710.26016800000002
 20
497.959969
 30
0.0
 11
710.17291099999989
 21
497.45185599999991
 31
0.0
  0
LINE
  5
D51
  8
WAKU
  6
CONTINUOUS
 10
710.27517699999999
 20
497.06647600000002
 30
0.0
 11
710.70945800000004
 21
497.14239700000002
 31
0.0
  0
LINE
  5
D52
  8
WAKU
  6
CONTINUOUS
 10
710.70945800000004
 20
497.14239700000002
 30
0.0
 11
711.18642799999986
 21
497.31462499999998
 31
0.0
  0
LINE
  5
D53
  8
WAKU
  6
CONTINUOUS
 10
711.18642799999986
 20
497.31462499999998
 30
0.0
 11
711.68776999999989
 21
497.5765449999999
 31
0.0
  0
LINE
  5
D54
  8
WAKU
  6
CONTINUOUS
 10
711.68776999999989
 20
497.5765449999999
 30
0.0
 11
712.19423200000006
 21
497.91809899999998
 31
0.0
  0
LINE
  5
D55
  8
WAKU
  6
CONTINUOUS
 10
712.19423200000006
 20
497.91809899999998
 30
0.0
 11
712.68636300000003
 21
498.32617099999987
 31
0.0
  0
LINE
  5
D56
  8
WAKU
  6
CONTINUOUS
 10
712.68636300000003
 20
498.32617099999987
 30
0.0
 11
713.14526599999988
 21
498.78508899999991
 31
0.0
  0
LINE
  5
D57
  8
WAKU
  6
CONTINUOUS
 10
713.14526599999988
 20
498.78508899999991
 30
0.0
 11
713.553316
 21
499.27722899999992
 31
0.0
  0
LINE
  5
D58
  8
WAKU
  6
CONTINUOUS
 10
713.553316
 20
499.27722899999992
 30
0.0
 11
713.89484299999992
 21
499.78369300000003
 31
0.0
  0
LINE
  5
D59
  8
WAKU
  6
CONTINUOUS
 10
713.89484299999992
 20
499.78369300000003
 30
0.0
 11
714.15673200000003
 21
500.28503000000001
 31
0.0
  0
LINE
  5
D5A
  8
WAKU
  6
CONTINUOUS
 10
714.15673200000003
 20
500.28503000000001
 30
0.0
 11
714.32892500000003
 21
500.76198699999998
 31
0.0
  0
LINE
  5
D5B
  8
WAKU
  6
CONTINUOUS
 10
714.32892500000003
 20
500.76198699999998
 30
0.0
 11
714.40481
 21
501.19624900000002
 31
0.0
  0
LINE
  5
D5C
  8
WAKU
  6
CONTINUOUS
 10
714.36348399999986
 20
501.64263
 30
0.0
 11
714.22530599999993
 21
501.92089499999997
 31
0.0
  0
LINE
  5
D5D
  8
WAKU
  6
CONTINUOUS
 10
714.22530599999993
 20
501.92089499999997
 30
0.0
 11
713.99882100000002
 21
502.11575699999997
 31
0.0
  0
LINE
  5
D5E
  8
WAKU
  6
CONTINUOUS
 10
713.99882100000002
 20
502.11575699999997
 30
0.0
 11
713.69234800000004
 21
502.22005999999988
 31
0.0
  0
LINE
  5
D5F
  8
WAKU
  6
CONTINUOUS
 10
713.69234800000004
 20
502.22005999999988
 30
0.0
 11
713.31714299999987
 21
502.22997199999992
 31
0.0
  0
LINE
  5
D60
  8
WAKU
  6
CONTINUOUS
 10
713.31714299999987
 20
502.22997199999992
 30
0.0
 11
712.88698799999986
 21
502.14512899999988
 31
0.0
  0
LINE
  5
D61
  8
WAKU
  6
CONTINUOUS
 10
712.88698799999986
 20
502.14512899999988
 30
0.0
 11
712.41768300000001
 21
501.96864799999997
 31
0.0
  0
LINE
  5
D62
  8
WAKU
  6
CONTINUOUS
 10
712.41768300000001
 20
501.96864799999997
 30
0.0
 11
711.9264639999999
 21
501.70700999999991
 31
0.0
  0
LINE
  5
D63
  8
WAKU
  6
CONTINUOUS
 10
711.9264639999999
 20
501.70700999999991
 30
0.0
 11
711.43137400000001
 21
501.36982599999988
 31
0.0
  0
LINE
  5
D64
  8
WAKU
  6
CONTINUOUS
 10
711.43137400000001
 20
501.36982599999988
 30
0.0
 11
710.95059900000001
 21
500.96947999999998
 31
0.0
  0
LINE
  5
D65
  8
WAKU
  6
CONTINUOUS
 10
710.95059900000001
 20
500.96947999999998
 30
0.0
 11
710.50179500000002
 21
500.52067699999998
 31
0.0
  0
LINE
  5
D66
  8
WAKU
  6
CONTINUOUS
 10
710.50179500000002
 20
500.52067699999998
 30
0.0
 11
710.10144899999989
 21
500.03990099999987
 31
0.0
  0
LINE
  5
D67
  8
WAKU
  6
CONTINUOUS
 10
710.10144899999989
 20
500.03990099999987
 30
0.0
 11
709.76426500000002
 21
499.54481199999998
 31
0.0
  0
LINE
  5
D68
  8
WAKU
  6
CONTINUOUS
 10
709.76426500000002
 20
499.54481199999998
 30
0.0
 11
709.50262699999985
 21
499.05359299999998
 31
0.0
  0
LINE
  5
D69
  8
WAKU
  6
CONTINUOUS
 10
709.50262699999985
 20
499.05359299999998
 30
0.0
 11
709.32614599999988
 21
498.5842869999999
 31
0.0
  0
LINE
  5
D6A
  8
WAKU
  6
CONTINUOUS
 10
709.32614599999988
 20
498.5842869999999
 30
0.0
 11
709.24130300000002
 21
498.15413199999989
 31
0.0
  0
LINE
  5
D6B
  8
WAKU
  6
CONTINUOUS
 10
709.24130300000002
 20
498.15413199999989
 30
0.0
 11
709.251215
 21
497.77892800000001
 31
0.0
  0
LINE
  5
D6C
  8
WAKU
  6
CONTINUOUS
 10
709.251215
 20
497.77892800000001
 30
0.0
 11
709.35551799999996
 21
497.47245400000003
 31
0.0
  0
LINE
  5
D6D
  8
WAKU
  6
CONTINUOUS
 10
709.35551799999996
 20
497.47245400000003
 30
0.0
 11
709.55038100000002
 21
497.245969
 31
0.0
  0
LINE
  5
D6E
  8
WAKU
  6
CONTINUOUS
 10
709.55038100000002
 20
497.245969
 30
0.0
 11
709.82864600000005
 21
497.10779099999991
 31
0.0
  0
INSERT
  5
D6F
  8
WAKU
  6
CONTINUOUS
  2
*U0
 10
340.0
 20
213.0
 30
0.0
1001
ACAD
1002
{
1000
R14_HATCH_DATA
1000
D6F
1011
341.0
1021
0.0
1031
0.0
1021
213.0
1031
0.0
1011
340.0
1021
0.0
1031
0.0
1021
214.0
1031
0.0
1011
340.0
1021
0.0
1031
0.0
1021
213.0
1031
1.0
1040
0.0
1010
0.0
1020
0.0
1030
1.0
1000
SOLID
1070
     1
1070
     1
1071
       15
1071
        7
1070
     0
1070
     1
1071
        3
1040
372.24905299999989
1040
290.5
1040
367.97127599999999
1040
290.5
1040
367.97127599999999
1040
286.22222199999999
1071
        3
1005
CC0
1005
CC2
1005
CC1
1071
        7
1070
     0
1070
     1
1071
       38
1040
373.99882100000002
1040
289.11575699999992
1040
373.69234799999992
1040
289.22005999999988
1040
373.31714299999999
1040
289.22997199999998
1040
372.88698799999992
1040
289.145129
1040
372.41768300000001
1040
288.96864799999992
1040
371.92646400000001
1040
288.70701000000003
1040
371.43137400000001
1040
288.36982599999999
1040
370.95059900000001
1040
287.96947999999992
1040
370.50179500000002
1040
287.52067699999992
1040
370.10144899999989
1040
287.03990099999987
1040
369.76426499999991
1040
286.54481199999998
1040
369.50262700000002
1040
286.05359299999998
1040
369.32614599999988
1040
285.58428700000002
1040
369.2413029999999
1040
285.15413199999989
1040
369.251215
1040
284.77892800000001
1040
369.35551800000002
1040
284.47245400000003
1040
369.55038100000002
1040
284.245969
1040
369.82864599999988
1040
284.10779100000002
1040
369.96682399999997
1040
283.82952599999987
1040
370.193309
1040
283.63466399999999
1040
370.49978199999993
1040
283.53036100000003
1040
370.87498699999998
1040
283.52044899999999
1040
371.30514199999988
1040
283.60529100000002
1040
371.77444800000001
1040
283.78177299999987
1040
372.26566600000001
1040
284.04341099999988
1040
372.76075600000001
1040
284.38059500000003
1040
373.24153200000001
1040
284.78094099999998
1040
373.69033499999989
1040
285.22974399999998
1040
374.09068100000002
1040
285.71051999999997
1040
374.427865
1040
286.20560899999992
1040
374.689503
1040
286.69682799999998
1040
374.86598399999991
1040
287.166134
1040
374.950827
1040
287.59628900000001
1040
374.94091500000002
1040
287.97149300000001
1040
374.836612
1040
288.27796699999999
1040
374.641749
1040
288.50445200000001
1040
374.36348399999991
1040
288.64263
1040
374.22530599999988
1040
288.92089499999997
1071
       38
1005
D5D
1005
D5E
1005
D5F
1005
D60
1005
D61
1005
D62
1005
D63
1005
D64
1005
D65
1005
D66
1005
D67
1005
D68
1005
D69
1005
D6A
1005
D6B
1005
D6C
1005
D6D
1005
D6E
1005
D07
1005
D08
1005
D09
1005
D0A
1005
D0B
1005
D0C
1005
D0D
1005
D0E
1005
D0F
1005
D10
1005
D11
1005
D12
1005
D13
1005
D14
1005
D15
1005
D16
1005
D17
1005
D18
1005
D19
1005
D5C
1071
       22
1070
     0
1070
     1
1071
       25
1040
373.799148
1040
288.78192899999988
1040
373.91694100000001
1040
288.683944
1040
373.48263600000001
1040
288.60801400000003
1040
373.00563899999997
1040
288.43576799999988
1040
372.50426900000002
1040
288.17382099999992
1040
371.99778300000003
1040
287.83223500000003
1040
371.50563199999988
1040
287.424128
1040
371.04671999999999
1040
286.96517399999999
1040
370.63867099999987
1040
286.47300000000001
1040
370.29715599999997
1040
285.96650899999992
1040
370.03529300000002
1040
285.46515399999993
1040
369.86313899999999
1040
284.98818899999998
1040
369.787305
1040
284.55393500000002
1040
369.68915499999991
1040
284.67243500000001
1040
369.63035799999989
1040
284.873087
1040
369.635696
1040
285.18040400000001
1040
369.73149000000001
1040
285.57602099999991
1040
369.923519
1040
286.03102799999988
1040
370.20703500000002
1040
286.51657
1040
370.99609800000002
1040
287.47510799999998
1040
371.954587
1040
288.26428399999992
1040
372.44023499999997
1040
288.54758500000003
1040
372.89513999999991
1040
288.74006500000002
1040
373.2908569999999
1040
288.83558099999988
1040
373.59799600000002
1040
288.84090200000003
1071
       25
1005
D2D
1005
D1A
1005
D1B
1005
D1C
1005
D1D
1005
D1E
1005
D1F
1005
D20
1005
D21
1005
D22
1005
D23
1005
D24
1005
D3A
1005
D39
1005
D38
1005
D37
1005
D36
1005
D35
1005
D34
1005
D33
1005
D32
1005
D31
1005
D30
1005
D2F
1005
D2E
1071
       22
1070
     0
1070
     1
1071
       16
1040
374.01922899999988
1040
288.29856899999987
1040
373.93207100000001
1040
287.79040199999997
1040
373.66135299999991
1040
287.15953400000001
1040
373.22023799999988
1040
286.48191999999989
1040
372.64629600000001
1040
285.82550600000002
1040
371.98993999999999
1040
285.25143100000003
1040
371.31226299999992
1040
284.8103319999999
1040
370.68139500000001
1040
284.53919500000001
1040
370.172911
1040
284.45185600000002
1040
370.26016800000002
1040
284.959969
1040
370.53071199999999
1040
285.59087499999993
1040
370.97189600000002
1040
286.26847099999992
1040
371.54582699999992
1040
286.92489299999988
1040
372.202181
1040
287.49899099999999
1040
372.87987799999991
1040
287.94005699999991
1040
373.510738
1040
288.21123999999998
1071
       16
1005
D2C
1005
D2B
1005
D2A
1005
D29
1005
D28
1005
D27
1005
D26
1005
D25
1005
D50
1005
D4F
1005
D4E
1005
D4D
1005
D4C
1005
D4B
1005
D4A
1005
D49
1071
       22
1070
     0
1070
     1
1071
       25
1040
374.40481
1040
288.19624900000002
1040
374.502951
1040
288.07791800000001
1040
374.561802
1040
287.87725299999988
1040
374.55636099999998
1040
287.56986399999988
1040
374.46071000000001
1040
287.17424799999992
1040
374.268507
1040
286.71927799999992
1040
373.98505
1040
286.23371800000001
1040
373.195965
1040
285.2752319999999
1040
372.23749700000002
1040
284.48611699999992
1040
371.75188199999991
1040
284.20279799999992
1040
371.2969839999999
1040
284.01036800000003
1040
370.90129400000001
1040
283.91486300000003
1040
370.59417699999989
1040
283.90949799999999
1040
370.39292699999987
1040
283.968568
1040
370.27517699999993
1040
284.06647599999991
1040
370.70945799999993
1040
284.14239700000002
1040
371.18642799999992
1040
284.31462499999992
1040
371.68776999999989
1040
284.57654500000001
1040
372.194232
1040
284.91809899999998
1040
372.68636299999991
1040
285.32617099999987
1040
373.14526599999988
1040
285.78508900000003
1040
373.553316
1040
286.27722899999992
1040
373.89484299999998
1040
286.78369300000003
1040
374.15673199999992
1040
287.28502999999989
1040
374.32892500000003
1040
287.76198699999998
1071
       25
1005
D48
1005
D47
1005
D46
1005
D45
1005
D44
1005
D43
1005
D42
1005
D41
1005
D40
1005
D3F
1005
D3E
1005
D3D
1005
D3C
1005
D3B
1005
D51
1005
D52
1005
D53
1005
D54
1005
D55
1005
D56
1005
D57
1005
D58
1005
D59
1005
D5A
1005
D5B
1071
        7
1070
     0
1070
     1
1071
       14
1040
378.72307699999988
1040
290.5
1040
378.0959279999999
1040
288.7769229999999
1040
380.31131299999993
1040
288.7769229999999
1040
377.15520499999991
1040
286.19230800000003
1040
376.17528499999997
1040
283.49999999999989
1040
379.39714500000002
1040
286.13846199999989
1040
378.436824
1040
283.49999999999989
1040
379.51374700000002
1040
283.49999999999989
1040
380.49366700000002
1040
286.19230800000003
1040
381.775285
1040
283.49999999999989
1040
382.75520499999988
1040
286.19230800000003
1040
381.5248509999999
1040
288.7769229999999
1040
383.69592799999992
1040
288.7769229999999
1040
384.32307700000001
1040
290.5
1071
       14
1005
CC4
1005
CCF
1005
CCE
1005
CC5
1005
CC7
1005
CC8
1005
CCD
1005
CCC
1005
CCB
1005
CCA
1005
CC9
1005
CC6
1005
CC3
1005
CDC
1071
        7
1070
     0
1070
     1
1071
        4
1040
385.615385
1040
290.5
1040
384.98823599999992
1040
288.7769229999999
1040
390.37285099999991
1040
288.7769229999999
1040
391.0
1040
290.5
1071
        4
1005
CDA
1005
CDB
1005
CD9
1005
CE3
1071
        7
1070
     0
1070
     1
1071
        4
1040
388.45220799999993
1040
283.49999999999989
1040
389.23614399999991
1040
285.65384599999987
1040
383.85152900000003
1040
285.65384599999987
1040
383.06759299999999
1040
283.49999999999989
1071
        4
1005
CD3
1005
CD4
1005
CD5
1005
CD2
1071
        7
1070
     0
1070
     1
1071
       22
1040
395.45220799999993
1040
283.49999999999989
1040
396.941687
1040
287.592308
1040
397.74937899999998
1040
287.592308
1040
398.33733100000001
1040
289.20769200000001
1040
397.52963799999992
1040
289.20769200000001
1040
398.0
1040
290.5
1040
396.92307699999992
1040
290.5
1040
396.45271500000001
1040
289.20769200000001
1040
393.76040799999993
1040
289.20769200000001
1040
394.23076900000001
1040
290.5
1040
393.15384599999999
1040
290.5
1040
392.68348500000002
1040
289.20769200000001
1040
391.87579199999999
1040
289.20769200000001
1040
391.28784000000002
1040
287.592308
1040
392.09553299999988
1040
287.592308
1040
391.70356499999991
1040
286.51538499999998
1040
392.78048799999999
1040
286.51538499999998
1040
393.17245600000001
1040
287.592308
1040
395.86476299999993
1040
287.592308
1040
395.159221
1040
285.65384599999987
1040
391.17460599999998
1040
285.65384599999987
1040
390.39067
1040
283.49999999999989
1071
       22
1005
CFB
1005
CFC
1005
CFA
1005
CF9
1005
CF8
1005
CFE
1005
CBC
1005
CDE
1005
CDD
1005
CE2
1005
CDF
1005
CE1
1005
CE0
1005
CD1
1005
CD7
1005
CD0
1005
CBD
1005
CBF
1005
CD6
1005
CD8
1005
CBE
1005
CF0
1071
        7
1070
     0
1070
     1
1071
        6
1040
398.19400599999989
1040
285.115385
1040
397.60605499999991
1040
283.49999999999989
1040
401.913747
1040
283.49999999999989
1040
403.87358699999999
1040
288.884615
1040
402.79666299999991
1040
288.884615
1040
401.42477599999989
1040
285.115385
1071
        6
1005
D01
1005
CEF
1005
CF3
1005
CF4
1005
CF1
1005
CEE
1071
       23
1070
     0
1070
     1
1071
        4
1040
402.04281700000001
1040
288.884615
1040
400.96589399999988
1040
288.884615
1040
400.18195800000001
1040
286.73076900000001
1040
401.25888099999997
1040
286.73076900000001
1071
        4
1005
CF7
1005
CEB
1005
CF5
1005
CED
1071
       23
1070
     0
1070
     1
1071
        4
1040
400.64281699999992
1040
288.884615
1040
399.56589400000001
1040
288.884615
1040
398.78195799999997
1040
286.73076900000001
1040
399.858881
1040
286.73076900000001
1071
        4
1005
CFD
1005
CEA
1005
CF2
1005
CEC
1071
       23
1070
     0
1070
     1
1071
        4
1040
406.615385
1040
290.5
1040
405.98823599999992
1040
288.7769229999999
1040
409.21900499999998
1040
288.7769229999999
1040
409.84615400000001
1040
290.5
1071
        4
1005
CE9
1005
CFF
1005
CE8
1005
D04
1071
       23
1070
     0
1070
     1
1071
        4
1040
405.75305500000002
1040
288.13076899999987
1040
405.28269399999999
1040
286.83846199999999
1040
408.51346299999989
1040
286.83846199999999
1040
408.98382400000003
1040
288.13076899999987
1071
        4
1005
CE4
1005
D00
1005
CE5
1005
D06
1071
        7
1070
     0
1070
     1
1071
        6
1040
409.45220799999993
1040
283.49999999999989
1040
412.0
1040
290.5
1040
410.92307699999992
1040
290.5
1040
409.15922099999989
1040
285.65384599999987
1040
404.85152900000003
1040
285.65384599999987
1040
404.06759299999999
1040
283.49999999999989
1071
        6
1005
D05
1005
D02
1005
CE7
1005
CF6
1005
CE6
1005
D03
1070
     0
1070
     1
1040
0.054099
1071
       15
1040
371.24837300000002
1040
289.88140899999991
1040
0.0
1040
373.90111799999988
1040
288.90763299999998
1040
0.0
1040
373.90111799999988
1040
288.90763299999998
1040
0.0
1040
373.90111799999988
1040
288.90763299999998
1040
0.0
1040
373.90111799999988
1040
288.90763299999998
1040
0.0
1040
380.34350000000001
1040
289.82731000000001
1040
0.0
1040
388.24759699999998
1040
289.66501399999993
1040
0.0
1040
386.51519200000001
1040
284.14694900000001
1040
0.0
1040
392.57860899999991
1040
284.25514599999991
1040
0.0
1040
400.53684500000003
1040
284.30924499999998
1040
0.0
1040
401.02408299999991
1040
287.55516599999999
1040
0.0
1040
399.72478000000001
1040
287.60926399999988
1040
0.0
1040
407.35818899999998
1040
289.98960599999992
1040
0.0
1040
407.141639
1040
287.50106699999992
1040
0.0
1040
407.19577600000002
1040
284.471541
1040
0.0
1002
}
  0
LINE
  5
74A8
  8
WAKU
 10
5.0
 20
505.0
 30
0.0
 11
755.0
 21
505.0
 31
0.0
  0
LINE
  5
A5DF
  8
SUNPO
  6
BYBLOCK
 10
387.48421699999989
 20
136.5352399999999
 30
0.0
 11
357.484217
 21
136.5352399999999
 31
0.0
  0
LINE
  5
A5E0
  8
SUNPO
  6
BYBLOCK
 10
372.484217
 20
146.5352399999999
 30
0.0
 11
357.484217
 21
146.5352399999999
 31
0.0
  0
LINE
  5
A5E1
  8
SUNPO
  6
BYBLOCK
 10
357.484217
 20
273.53523999999999
 30
0.0
 11
387.48421699999989
 21
273.53523999999999
 31
0.0
  0
LINE
  5
A5E2
  8
DANMEN
  6
CONTINUOUS
 10
386.984217
 20
263.53523999999987
 30
0.0
 11
357.984217
 21
263.53523999999987
 31
0.0
  0
LINE
  5
A5E3
  8
DANMEN
  6
CONTINUOUS
 10
386.984217
 20
163.5352399999999
 30
0.0
 11
362.98421699999989
 21
163.5352399999999
 31
0.0
  0
TEXT
  5
A5E4
  8
SUNPO
  6
CONTINUOUS
 10
370.609217
 20
274.03523999999987
 30
0.0
 40
2.5
  1
30
  7
MX_NOTE_STANDARD
  0
TEXT
  5
A5E5
  8
SUNPO
  6
CONTINUOUS
 10
370.609217
 20
137.0352399999999
 30
0.0
 40
2.5
  1
30
  7
MX_NOTE_STANDARD
  0
LINE
  5
A5E6
  8
DANMEN
  6
CONTINUOUS
 10
205.56531599999991
 20
269.03523999999999
 30
0.0
 11
205.56531599999991
 21
158.5352399999999
 31
0.0
  0
LINE
  5
A5E7
  8
DANMEN
  6
CONTINUOUS
 10
203.915322
 20
269.03523999999999
 30
0.0
 11
203.915322
 21
160.06507999999991
 31
0.0
  0
LINE
  5
A5E8
  8
DANMEN
  6
CONTINUOUS
 10
357.484217
 20
263.03523999999999
 30
0.0
 11
357.484217
 21
208.53523999999999
 31
0.0
  0
LINE
  5
A5E9
  8
DANMEN
  6
CONTINUOUS
 10
359.13421699999992
 20
261.88524000000001
 30
0.0
 11
359.13421699999992
 21
208.53523999999999
 31
0.0
  0
LINE
  5
A5EA
  8
DANMEN
  6
CONTINUOUS
 10
370.484217
 20
261.88524000000001
 30
0.0
 11
370.484217
 21
211.5352399999999
 31
0.0
  0
LINE
  5
A5EB
  8
DANMEN
  6
CONTINUOUS
 10
298.706211
 20
238.53523899999999
 30
0.0
 11
307.06532599999991
 21
243.62339600000001
 31
0.0
  0
LINE
  5
A5EC
  8
DANMEN
  6
CONTINUOUS
 10
299.415323
 20
237.035237
 30
0.0
 11
310.675297
 21
243.88913400000001
 31
0.0
  0
LINE
  5
A5ED
  8
DANMEN
  6
CONTINUOUS
 10
258.91530399999988
 20
264.035236
 30
0.0
 11
258.91530399999988
 21
241.035236
 31
0.0
  0
ARC
  5
A5EE
  8
DANMEN
  6
CONTINUOUS
 10
262.215304
 20
241.3352359999999
 30
0.0
 40
1.0
 50
0.0
 51
90.0
  0
ARC
  5
A5EF
  8
DANMEN
  6
CONTINUOUS
 10
261.36530399999992
 20
242.8352359999999
 30
0.0
 40
0.5
 50
180.0
 51
270.0
  0
LINE
  5
A5F0
  8
DANMEN
  6
CONTINUOUS
 10
310.91532299999989
 20
242.53523899999999
 30
0.0
 11
301.415323
 21
237.03523899999999
 31
0.0
  0
LINE
  5
A5F1
  8
DANMEN
  6
CONTINUOUS
 10
300.91532299999989
 20
237.03523899999999
 30
0.0
 11
300.91532299999989
 21
247.03523799999999
 31
0.0
  0
ARC
  5
A5F2
  8
DANMEN
  6
CONTINUOUS
 10
311.915323
 20
244.53523899999999
 30
0.0
 40
2.0
 50
270.0
 51
0.0
  0
LINE
  5
A5F3
  8
DANMEN
  6
CONTINUOUS
 10
243.31600499999999
 20
170.63269999999989
 30
0.0
 11
239.67580099999989
 21
169.90465900000001
 31
0.0
  0
LINE
  5
A5F4
  8
DANMEN
  6
CONTINUOUS
 10
251.11143799999991
 20
173.87446299999999
 30
0.0
 11
239.415322
 21
171.5352399999999
 31
0.0
  0
LINE
  5
A5F5
  8
DANMEN
  6
CONTINUOUS
 10
204.415322
 20
156.5352399999999
 30
0.0
 11
258.915322
 21
156.5352399999999
 31
0.0
  0
LINE
  5
A5F6
  8
DANMEN
  6
CONTINUOUS
 10
212.565316
 20
158.18523400000001
 30
0.0
 11
258.915322
 21
158.18523400000001
 31
0.0
  0
LINE
  5
A5F8
  8
DANMEN
  6
CONTINUOUS
 10
204.317543
 20
156.5352399999999
 30
0.0
 11
211.415322
 21
156.5352399999999
 31
0.0
  0
LINE
  5
A5F9
  8
DANMEN
  6
CONTINUOUS
 10
205.01532199999991
 20
158.5352399999999
 30
0.0
 11
210.915322
 21
158.5352399999999
 31
0.0
  0
LINE
  5
A5FA
  8
DANMEN
  6
CONTINUOUS
 10
200.91532199999989
 20
165.93523400000001
 30
0.0
 11
200.91532199999989
 21
160.64426
 31
0.0
  0
LINE
  5
A5FB
  8
DANMEN
  6
CONTINUOUS
 10
202.11532199999991
 20
165.93523400000001
 30
0.0
 11
202.11532199999991
 21
160.96507700000001
 31
0.0
  0
LINE
  5
A5FC
  8
DANMEN
  6
CONTINUOUS
 10
201.1917149999999
 20
160.19704299999989
 30
0.0
 11
203.915322
 21
158.83523999999991
 31
0.0
  0
LINE
  5
A5FD
  8
DANMEN
  6
CONTINUOUS
 10
202.11532199999991
 20
160.96507700000001
 30
0.0
 11
204.73892900000001
 21
159.65327400000001
 31
0.0
  0
ARC
  5
A5FE
  8
DANMEN
  6
CONTINUOUS
 10
201.41532199999989
 20
160.64425700000001
 30
0.0
 40
0.5
 50
180.0
 51
243.43494899999999
  0
LINE
  5
A601
  8
DANMEN
  6
CONTINUOUS
 10
203.915322
 20
158.83523999999991
 30
0.0
 11
203.915322
 21
157.0352399999999
 31
0.0
  0
LINE
  5
A604
  8
DANMEN
  6
CONTINUOUS
 10
205.01532199999991
 20
159.20606000000001
 30
0.0
 11
205.01532199999991
 21
158.5352399999999
 31
0.0
  0
ARC
  5
A605
  8
DANMEN
  6
CONTINUOUS
 10
204.51532199999991
 20
159.20606000000001
 30
0.0
 40
0.5
 50
0.0
 51
63.434949000000003
  0
ARC
  5
A608
  8
DANMEN
  6
CONTINUOUS
 10
204.415322
 20
157.0352399999999
 30
0.0
 40
0.5
 50
180.0
 51
270.0
  0
ARC
  5
A60B
  8
DANMEN
  6
CONTINUOUS
 10
201.515322
 20
165.93523999999991
 30
0.0
 40
0.6
 50
0.0
 51
180.0
  0
LINE
  5
A60C
  8
DANMEN
  6
CONTINUOUS
 10
224.415322
 20
184.82652799999991
 30
0.0
 11
224.415322
 21
171.5352399999999
 31
0.0
  0
LINE
  5
A60D
  8
DANMEN
  6
CONTINUOUS
 10
221.415322
 20
184.82652799999991
 30
0.0
 11
221.415322
 21
171.5352399999999
 31
0.0
  0
LINE
  5
A60E
  8
DANMEN
  6
CONTINUOUS
 10
223.61532199999999
 20
169.83524
 30
0.0
 11
225.21532199999999
 21
169.83524
 31
0.0
  0
LINE
  5
A60F
  8
DANMEN
  6
CONTINUOUS
 10
210.915322
 20
164.5352399999999
 30
0.0
 11
210.915322
 21
158.5352399999999
 31
0.0
  0
LINE
  5
A610
  8
DANMEN
  6
CONTINUOUS
 10
212.56532200000001
 20
163.8852399999999
 30
0.0
 11
212.56532200000001
 21
158.18523999999999
 31
0.0
  0
LINE
  5
A613
  8
DANMEN
  6
CONTINUOUS
 10
212.56532200000001
 20
163.8852399999999
 30
0.0
 11
221.06532200000001
 21
163.8852399999999
 31
0.0
  0
LINE
  5
A614
  8
DANMEN
  6
CONTINUOUS
 10
211.915322
 20
165.5352399999999
 30
0.0
 11
220.915322
 21
165.5352399999999
 31
0.0
  0
ARC
  5
A615
  8
DANMEN
  6
CONTINUOUS
 10
211.915322
 20
164.5352399999999
 30
0.0
 40
1.0
 50
90.0
 51
180.0
  0
LINE
  5
A619
  8
DANMEN
  6
CONTINUOUS
 10
220.915322
 20
171.0352399999999
 30
0.0
 11
220.915322
 21
165.5352399999999
 31
0.0
  0
ARC
  5
A61A
  8
DANMEN
  6
CONTINUOUS
 10
223.61532199999999
 20
167.589179
 30
0.0
 40
1.0
 50
180.0
 51
245.3756819999999
  0
LINE
  5
A61C
  8
DANMEN
  6
CONTINUOUS
 10
222.56532200000001
 20
165.93523999999991
 30
0.0
 11
222.56532200000001
 21
165.3852399999999
 31
0.0
  0
LINE
  5
A61E
  8
DANMEN
  6
CONTINUOUS
 10
222.56532200000001
 20
165.93523999999991
 30
0.0
 11
223.015322
 21
165.93523999999991
 31
0.0
  0
ARC
  5
A61F
  8
DANMEN
  6
CONTINUOUS
 10
223.11532199999999
 20
166.49830800000001
 30
0.0
 40
0.2
 50
0.0
 51
65.375681999999983
  0
LINE
  5
A620
  8
DANMEN
  6
CONTINUOUS
 10
223.31532200000001
 20
166.23524
 30
0.0
 11
223.31532200000001
 21
166.49830800000001
 31
0.0
  0
ARC
  5
A621
  8
DANMEN
  6
CONTINUOUS
 10
223.015322
 20
166.23524
 30
0.0
 40
0.3
 50
270.0
 51
0.0
  0
ARC
  5
A622
  8
DANMEN
  6
CONTINUOUS
 10
221.06532200000001
 20
165.3852399999999
 30
0.0
 40
1.5
 50
270.0
 51
0.0
  0
ARC
  5
A626
  8
DANMEN
  6
CONTINUOUS
 10
221.415322
 20
171.0352399999999
 30
0.0
 40
0.5
 50
90.0
 51
180.0
  0
ARC
  5
A628
  8
DANMEN
  6
CONTINUOUS
 10
223.61532199999999
 20
168.83524
 30
0.0
 40
1.0
 50
90.0
 51
180.0
  0
LINE
  5
A629
  8
DANMEN
  6
CONTINUOUS
 10
222.61532199999999
 20
167.589179
 30
0.0
 11
222.61532199999999
 21
168.83524
 31
0.0
  0
LINE
  5
A62A
  8
DANMEN
  6
CONTINUOUS
 10
224.415322
 20
171.5352399999999
 30
0.0
 11
239.415322
 21
171.5352399999999
 31
0.0
  0
LINE
  5
A62B
  8
DANMEN
  6
CONTINUOUS
 10
228.7153219999999
 20
169.8852399999999
 30
0.0
 11
239.47968499999999
 21
169.8852399999999
 31
0.0
  0
ARC
  5
A62C
  8
DANMEN
  6
CONTINUOUS
 10
225.71532199999999
 20
167.50493399999999
 30
0.0
 40
2.0
 50
308.293477
 51
0.0
  0
ARC
  5
A62D
  8
DANMEN
  6
CONTINUOUS
 10
225.21532199999999
 20
167.589179
 30
0.0
 40
1.0
 50
294.62431800000002
 51
0.0
  0
LINE
  5
A62E
  8
DANMEN
  6
CONTINUOUS
 10
225.515322
 20
166.23524
 30
0.0
 11
225.515322
 21
166.49830800000001
 31
0.0
  0
ARC
  5
A62F
  8
DANMEN
  6
CONTINUOUS
 10
225.71532199999999
 20
166.49830800000001
 30
0.0
 40
0.2
 50
114.6243179999999
 51
180.0
  0
LINE
  5
A630
  8
DANMEN
  6
CONTINUOUS
 10
225.81532200000001
 20
165.93523999999991
 30
0.0
 11
226.95470099999989
 21
165.93523999999991
 31
0.0
  0
ARC
  5
A631
  8
DANMEN
  6
CONTINUOUS
 10
225.81532200000001
 20
166.23524
 30
0.0
 40
0.3
 50
180.0
 51
270.0
  0
ARC
  5
A632
  8
DANMEN
  6
CONTINUOUS
 10
228.7153219999999
 20
168.8852399999999
 30
0.0
 40
1.0
 50
90.0
 51
180.0
  0
LINE
  5
A636
  8
DANMEN
  6
CONTINUOUS
 10
227.71532199999999
 20
167.50493399999999
 30
0.0
 11
227.71532199999999
 21
168.88524599999991
 31
0.0
  0
LINE
  5
A637
  8
DANMEN
  6
CONTINUOUS
 10
226.21532199999999
 20
167.589179
 30
0.0
 11
226.21532199999999
 21
168.83524
 31
0.0
  0
ARC
  5
A638
  8
DANMEN
  6
CONTINUOUS
 10
225.21532199999999
 20
168.83524
 30
0.0
 40
1.0
 50
0.0
 51
90.0
  0
ARC
  5
A63C
  8
DANMEN
  6
CONTINUOUS
 10
239.47968499999999
 20
170.8852399999999
 30
0.0
 40
1.0
 50
270.0
 51
281.309932
  0
ARC
  5
A63E
  8
DANMEN
  6
CONTINUOUS
 10
222.915322
 20
182.5352399999999
 30
0.0
 40
3.0
 50
66.421821999999992
 51
113.57817799999999
  0
ARC
  5
A641
  8
DANMEN
  6
CONTINUOUS
 10
221.915322
 20
184.82652799999991
 30
0.0
 40
0.5
 50
113.57817799999999
 51
180.0
  0
ARC
  5
A644
  8
DANMEN
  6
CONTINUOUS
 10
223.915322
 20
184.82652799999991
 30
0.0
 40
0.5
 50
0.0
 51
66.421821999999992
  0
LINE
  5
A646
  8
DANMEN
  6
CONTINUOUS
 10
303.915322
 20
238.48260699999989
 30
0.0
 11
303.915322
 21
146.5352399999999
 31
0.0
  0
LINE
  5
A647
  8
DANMEN
  6
CONTINUOUS
 10
258.915322
 20
156.5352399999999
 30
0.0
 11
258.915322
 21
147.0352399999999
 31
0.0
  0
LINE
  5
A648
  8
DANMEN
  6
CONTINUOUS
 10
260.56532199999998
 20
166.5352399999999
 30
0.0
 11
260.56532199999998
 21
147.0352399999999
 31
0.0
  0
LINE
  5
A649
  8
DANMEN
  6
CONTINUOUS
 10
260.56532199999998
 20
146.5352399999999
 30
0.0
 11
303.915322
 21
146.5352399999999
 31
0.0
  0
ARC
  5
A64A
  8
DANMEN
  6
CONTINUOUS
 10
260.06532199999998
 20
147.0352399999999
 30
0.0
 40
0.5
 50
270.0000179999999
 51
0.0
  0
LINE
  5
A64B
  8
DANMEN
  6
CONTINUOUS
 10
259.41532199999989
 20
146.5352399999999
 30
0.0
 11
260.06532199999998
 21
146.5352399999999
 31
0.0
  0
ARC
  5
A64C
  8
DANMEN
  6
CONTINUOUS
 10
259.41532199999989
 20
147.0352399999999
 30
0.0
 40
0.5
 50
180.0000189999999
 51
270.000001
  0
ARC
  5
A64F
  8
DANMEN
  6
CONTINUOUS
 10
286.61532199999999
 20
194.8852399999999
 30
0.0
 40
1.0
 50
0.0
 51
90.0
  0
ARC
  5
A650
  8
DANMEN
  6
CONTINUOUS
 10
295.2153219999999
 20
194.8852399999999
 30
0.0
 40
1.0
 50
90.0
 51
180.0
  0
ARC
  5
A651
  8
DANMEN
  6
CONTINUOUS
 10
291.71532200000001
 20
194.83524
 30
0.0
 40
1.0
 50
0.0
 51
90.0
  0
ARC
  5
A652
  8
DANMEN
  6
CONTINUOUS
 10
290.11532199999999
 20
194.83524
 30
0.0
 40
1.0
 50
90.0
 51
180.0
  0
LINE
  5
A653
  8
DANMEN
  6
CONTINUOUS
 10
254.415322
 20
198.53523999999999
 30
0.0
 11
254.415322
 21
192.5352399999999
 31
0.0
  0
LINE
  5
A654
  8
DANMEN
  6
CONTINUOUS
 10
303.915322
 20
216.0352399999999
 30
0.0
 11
303.915322
 21
167.0352399999999
 31
0.0
  0
LINE
  5
A655
  8
DANMEN
  6
CONTINUOUS
 10
255.415322
 20
197.73524
 30
0.0
 11
255.415322
 21
192.0352399999999
 31
0.0
  0
ARC
  5
A656
  8
DANMEN
  6
CONTINUOUS
 10
259.41532199999989
 20
196.23524
 30
0.0
 40
0.5
 50
180.0
 51
270.0
  0
LINE
  5
A657
  8
DANMEN
  6
CONTINUOUS
 10
251.11531899999989
 20
198.9352429999999
 30
0.0
 11
251.11531899999989
 21
191.83524299999991
 31
0.0
  0
LINE
  5
A658
  8
DANMEN
  6
CONTINUOUS
 10
253.11531899999989
 20
196.23524299999991
 30
0.0
 11
253.11531899999989
 21
194.53524299999989
 31
0.0
  0
LINE
  5
A659
  8
DANMEN
  6
CONTINUOUS
 10
250.061497
 20
199.41968399999999
 30
0.0
 11
248.93401900000001
 21
195.9253929999999
 31
0.0
  0
LINE
  5
A65A
  8
DANMEN
  6
CONTINUOUS
 10
250.49775299999999
 20
198.9352429999999
 30
0.0
 11
249.51531899999989
 21
195.75236899999999
 31
0.0
  0
LINE
  5
A65B
  8
DANMEN
  6
CONTINUOUS
 10
272.415322
 20
174.5352399999999
 30
0.0
 11
302.2653279999999
 21
174.5352399999999
 31
0.0
  0
ARC
  5
A65C
  8
DANMEN
  6
CONTINUOUS
 10
252.06532200000001
 20
173.9122689999999
 30
0.0
 40
1.5
 50
281.309932
 51
0.0
  0
LINE
  5
A65D
  8
DANMEN
  6
CONTINUOUS
 10
258.915322
 20
177.3852399999999
 30
0.0
 11
258.915322
 21
158.18523400000001
 31
0.0
  0
LINE
  5
A65E
  8
DANMEN
  6
CONTINUOUS
 10
260.56532199999998
 20
178.08939599999999
 30
0.0
 11
260.56532199999998
 21
168.18523400000001
 31
0.0
  0
LINE
  5
A65F
  8
DANMEN
  6
CONTINUOUS
 10
246.786564
 20
171.14952199999991
 30
0.0
 11
248.357168
 21
171.45481599999991
 31
0.0
  0
LINE
  5
A660
  8
DANMEN
  6
CONTINUOUS
 10
245.823297
 20
166.98928599999999
 30
0.0
 11
246.941743
 21
167.2066899999999
 31
0.0
  0
ARC
  5
A661
  8
DANMEN
  6
CONTINUOUS
 10
246.74039400000001
 20
168.766625
 30
0.0
 40
2.0
 50
191.0
 51
242.70652299999989
  0
ARC
  5
A662
  8
DANMEN
  6
CONTINUOUS
 10
243.51212100000001
 20
169.652119
 30
0.0
 40
1.0
 50
11.0
 51
101.3099319999999
  0
LINE
  5
A663
  8
DANMEN
  6
CONTINUOUS
 10
244.77713900000001
 20
168.385007
 30
0.0
 11
244.49374800000001
 21
169.842928
 31
0.0
  0
LINE
  5
A664
  8
DANMEN
  6
CONTINUOUS
 10
246.23350499999989
 20
168.75391799999991
 30
0.0
 11
245.995746
 21
169.97708600000001
 31
0.0
  0
ARC
  5
A665
  8
DANMEN
  6
CONTINUOUS
 10
246.932467
 20
167.77849399999999
 30
0.0
 40
0.2
 50
11.0
 51
76.375681999999998
  0
ARC
  5
A666
  8
DANMEN
  6
CONTINUOUS
 10
247.21513299999989
 20
168.944727
 30
0.0
 40
1.0
 50
191.0
 51
256.37568199999998
  0
LINE
  5
A667
  8
DANMEN
  6
CONTINUOUS
 10
247.17898799999989
 20
167.55842100000001
 30
0.0
 11
247.128793
 21
167.81665599999999
 31
0.0
  0
ARC
  5
A669
  8
DANMEN
  6
CONTINUOUS
 10
246.88449999999989
 20
167.50117800000001
 30
0.0
 40
0.3
 50
281.0
 51
11.0
  0
ARC
  5
A66A
  8
DANMEN
  6
CONTINUOUS
 10
246.977373
 20
170.1678949999999
 30
0.0
 40
1.0
 50
101.0
 51
191.0
  0
ARC
  5
A66C
  8
DANMEN
  6
CONTINUOUS
 10
251.94523799999999
 20
171.33874299999999
 30
0.0
 40
1.0
 50
101.3099319999999
 51
191.0
  0
LINE
  5
A66D
  8
DANMEN
  6
CONTINUOUS
 10
251.25587899999991
 20
169.64434700000001
 30
0.0
 11
250.9636109999999
 21
171.14793399999999
 31
0.0
  0
ARC
  5
A66E
  8
DANMEN
  6
CONTINUOUS
 10
249.29262499999999
 20
169.26272900000001
 30
0.0
 40
2.0
 50
319.29347699999988
 51
11.0
  0
LINE
  5
A66F
  8
DANMEN
  6
CONTINUOUS
 10
249.7673629999999
 20
169.440831
 30
0.0
 11
249.52960399999989
 21
170.66399799999999
 31
0.0
  0
LINE
  5
A670
  8
DANMEN
  6
CONTINUOUS
 10
249.33856800000001
 20
167.97820100000001
 30
0.0
 11
249.28837200000001
 21
168.236436
 31
0.0
  0
ARC
  5
A671
  8
DANMEN
  6
CONTINUOUS
 10
248.78573600000001
 20
169.250022
 30
0.0
 40
1.0
 50
305.62431800000002
 51
11.0
  0
ARC
  5
A672
  8
DANMEN
  6
CONTINUOUS
 10
249.48469800000001
 20
168.274597
 30
0.0
 40
0.2
 50
125.624318
 51
191.0
  0
ARC
  5
A674
  8
DANMEN
  6
CONTINUOUS
 10
249.63305600000001
 20
168.0354439999999
 30
0.0
 40
0.3
 50
191.0
 51
281.0
  0
ARC
  5
A675
  8
DANMEN
  6
CONTINUOUS
 10
248.54797699999989
 20
170.47318899999991
 30
0.0
 40
1.0
 50
11.0
 51
101.0
  0
LINE
  5
A676
  8
DANMEN
  6
CONTINUOUS
 10
249.69029900000001
 20
167.74095600000001
 30
0.0
 11
250.80874499999999
 21
167.958359
 31
0.0
  0
LINE
  5
A677
  8
DANMEN
  6
CONTINUOUS
 10
252.35949600000001
 20
172.44139799999999
 30
0.0
 11
251.749122
 21
172.31932399999999
 31
0.0
  0
ARC
  5
A67C
  8
DANMEN
  6
CONTINUOUS
 10
262.915322
 20
167.0352399999999
 30
0.0
 40
0.5
 50
270.0000179999999
 51
0.0
  0
LINE
  5
A67D
  8
DANMEN
  6
CONTINUOUS
 10
260.56532199999998
 20
166.5352399999999
 30
0.0
 11
262.915322
 21
166.5352399999999
 31
0.0
  0
LINE
  5
A680
  8
DANMEN
  6
CONTINUOUS
 10
260.56532199999998
 20
168.18523400000001
 30
0.0
 11
262.915322
 21
168.18523400000001
 31
0.0
  0
LINE
  5
A683
  8
DANMEN
  6
CONTINUOUS
 10
263.41532199999989
 20
167.68523400000001
 30
0.0
 11
263.41532199999989
 21
167.0352399999999
 31
0.0
  0
ARC
  5
A684
  8
DANMEN
  6
CONTINUOUS
 10
262.915322
 20
167.68523400000001
 30
0.0
 40
0.5
 50
0.0
 51
89.999981999999974
  0
LINE
  5
A685
  8
DANMEN
  6
CONTINUOUS
 10
254.06532200000001
 20
177.8852399999999
 30
0.0
 11
258.415322
 21
177.8852399999999
 31
0.0
  0
LINE
  5
A686
  8
DANMEN
  6
CONTINUOUS
 10
253.915322
 20
179.5352399999999
 30
0.0
 11
259.41532199999989
 21
179.5352399999999
 31
0.0
  0
ARC
  5
A687
  8
DANMEN
  6
CONTINUOUS
 10
253.915322
 20
177.5352399999999
 30
0.0
 40
2.0
 50
90.0
 51
180.0
  0
ARC
  5
A689
  8
DANMEN
  6
CONTINUOUS
 10
250.915322
 20
174.85504399999991
 30
0.0
 40
1.0
 50
281.309932
 51
0.0
  0
LINE
  5
A68A
  8
DANMEN
  6
CONTINUOUS
 10
251.915322
 20
174.85504399999991
 30
0.0
 11
251.915322
 21
177.5352399999999
 31
0.0
  0
LINE
  5
A68B
  8
DANMEN
  6
CONTINUOUS
 10
253.5653219999999
 20
173.9122689999999
 30
0.0
 11
253.5653219999999
 21
177.3852399999999
 31
0.0
  0
ARC
  5
A68C
  8
DANMEN
  6
CONTINUOUS
 10
254.06532200000001
 20
177.3852399999999
 30
0.0
 40
0.5
 50
90.0
 51
180.0
  0
LINE
  5
A68F
  8
DANMEN
  6
CONTINUOUS
 10
252.415322
 20
191.5352399999999
 30
0.0
 11
254.915322
 21
191.5352399999999
 31
0.0
  0
LINE
  5
A690
  8
DANMEN
  6
CONTINUOUS
 10
252.415322
 20
193.73524
 30
0.0
 11
252.71532199999999
 21
193.73524
 31
0.0
  0
LINE
  5
A691
  8
DANMEN
  6
CONTINUOUS
 10
251.9153189999999
 20
193.73524299999991
 30
0.0
 11
252.9153189999999
 21
193.73524299999991
 31
0.0
  0
LINE
  5
A692
  8
DANMEN
  6
CONTINUOUS
 10
251.915322
 20
193.23523700000001
 30
0.0
 11
251.915322
 21
192.0352399999999
 31
0.0
  0
ARC
  5
A693
  8
DANMEN
  6
CONTINUOUS
 10
252.415322
 20
192.0352399999999
 30
0.0
 40
0.5
 50
180.0
 51
270.0
  0
ARC
  5
A695
  8
DANMEN
  6
CONTINUOUS
 10
252.415322
 20
193.23524
 30
0.0
 40
0.5
 50
90.0
 51
180.0
  0
LINE
  5
A698
  8
DANMEN
  6
CONTINUOUS
 10
251.9153189999999
 20
193.73524299999991
 30
0.0
 11
251.9153189999999
 21
191.235243
 31
0.0
  0
LINE
  5
A69A
  8
DANMEN
  6
CONTINUOUS
 10
250.242797
 20
191.235243
 30
0.0
 11
251.9153189999999
 21
191.235243
 31
0.0
  0
LINE
  5
A69E
  8
DANMEN
  6
CONTINUOUS
 10
248.9153189999999
 20
195.84095199999999
 30
0.0
 11
248.9153189999999
 21
194.92953399999999
 31
0.0
  0
LINE
  5
A69F
  8
DANMEN
  6
CONTINUOUS
 10
248.93401900000001
 20
194.84509299999991
 30
0.0
 11
250.061497
 21
191.35080199999999
 31
0.0
  0
ARC
  5
A6A0
  8
DANMEN
  6
CONTINUOUS
 10
250.242797
 20
191.4352429999999
 30
0.0
 40
0.2
 50
204.97390999999999
 51
270.0
  0
ARC
  5
A6A2
  8
DANMEN
  6
CONTINUOUS
 10
249.11531899999989
 20
195.84095199999999
 30
0.0
 40
0.2
 50
155.0260899999999
 51
180.0
  0
ARC
  5
A6A4
  8
DANMEN
  6
CONTINUOUS
 10
249.11531899999989
 20
194.92953399999999
 30
0.0
 40
0.2
 50
180.0
 51
204.97390999999999
  0
LINE
  5
A6A6
  8
DANMEN
  6
CONTINUOUS
 10
249.51531899999989
 20
195.75236899999999
 30
0.0
 11
249.51531899999989
 21
195.01811599999991
 31
0.0
  0
LINE
  5
A6A7
  8
DANMEN
  6
CONTINUOUS
 10
249.51531899999989
 20
195.01811599999991
 30
0.0
 11
250.49775299999999
 21
191.83524299999991
 31
0.0
  0
LINE
  5
A6A8
  8
DANMEN
  6
CONTINUOUS
 10
250.49775299999999
 20
191.83524299999991
 30
0.0
 11
251.11531899999989
 21
191.83524299999991
 31
0.0
  0
LINE
  5
A6AE
  8
DANMEN
  6
CONTINUOUS
 10
252.71532500000001
 20
192.5352399999999
 30
0.0
 11
254.415322
 21
192.5352399999999
 31
0.0
  0
ARC
  5
A6AF
  8
DANMEN
  6
CONTINUOUS
 10
254.915322
 20
192.0352399999999
 30
0.0
 40
0.5
 50
270.0
 51
0.0
  0
LINE
  5
A6B2
  8
DANMEN
  6
CONTINUOUS
 10
252.71532199999999
 20
193.73524
 30
0.0
 11
252.71532199999999
 21
192.5352399999999
 31
0.0
  0
LINE
  5
A6B5
  8
DANMEN
  6
CONTINUOUS
 10
253.11531899999989
 20
192.53524299999989
 30
0.0
 11
253.71531899999999
 21
192.53524299999989
 31
0.0
  0
ARC
  5
A6B7
  8
DANMEN
  6
CONTINUOUS
 10
253.71531899999999
 20
192.735243
 30
0.0
 40
0.2
 50
270.0000179999999
 51
0.0
  0
ARC
  5
A6B9
  8
DANMEN
  6
CONTINUOUS
 10
253.11531899999989
 20
192.735243
 30
0.0
 40
0.2
 50
180.0000189999999
 51
270.000001
  0
LINE
  5
A6BB
  8
DANMEN
  6
CONTINUOUS
 10
253.9153189999999
 20
193.73524299999991
 30
0.0
 11
253.9153189999999
 21
192.735243
 31
0.0
  0
LINE
  5
A6BD
  8
DANMEN
  6
CONTINUOUS
 10
253.11531899999989
 20
194.53524299999989
 30
0.0
 11
253.9153189999999
 21
193.73524299999991
 31
0.0
  0
LINE
  5
A6BE
  8
DANMEN
  6
CONTINUOUS
 10
252.9153189999999
 20
193.73524299999991
 30
0.0
 11
252.9153189999999
 21
192.735243
 31
0.0
  0
LINE
  5
A6C1
  8
DANMEN
  6
CONTINUOUS
 10
271.415322
 20
182.848378
 30
0.0
 11
271.415322
 21
195.73523999999989
 31
0.0
  0
LINE
  5
A6C2
  8
DANMEN
  6
CONTINUOUS
 10
259.41532199999989
 20
179.5352399999999
 30
0.0
 11
270.6192759999999
 21
181.86939699999991
 31
0.0
  0
ARC
  5
A6C3
  8
DANMEN
  6
CONTINUOUS
 10
264.93011999999999
 20
177.97725800000001
 30
0.0
 40
1.0
 50
11.801140999999999
 51
101.7682889999999
  0
LINE
  5
A6C4
  8
DANMEN
  6
CONTINUOUS
 10
260.56532199999998
 20
178.08939599999999
 30
0.0
 11
264.72616599999998
 21
178.9562389999999
 31
0.0
  0
ARC
  5
A6C6
  8
DANMEN
  6
CONTINUOUS
 10
258.415322
 20
177.3852399999999
 30
0.0
 40
0.5
 50
0.0
 51
90.0
  0
LINE
  5
A6C9
  8
DANMEN
  6
CONTINUOUS
 10
271.26850200000001
 20
177.466735
 30
0.0
 11
271.01366399999989
 21
178.68645900000001
 31
0.0
  0
ARC
  5
A6CA
  8
DANMEN
  6
CONTINUOUS
 10
268.46861899999988
 20
178.154718
 30
0.0
 40
1.0
 50
101.8011409999999
 51
191.801141
  0
ARC
  5
A6CB
  8
DANMEN
  6
CONTINUOUS
 10
268.25125600000001
 20
176.75027299999991
 30
0.0
 40
2.0
 50
191.801141
 51
243.50766400000001
  0
ARC
  5
A6CC
  8
DANMEN
  6
CONTINUOUS
 10
268.4571259999999
 20
175.76492300000001
 30
0.0
 40
0.2
 50
11.801140999999999
 51
77.176822999999985
  0
ARC
  5
A6CD
  8
DANMEN
  6
CONTINUOUS
 10
268.72345799999999
 20
176.9349949999999
 30
0.0
 40
1.0
 50
191.801141
 51
257.1768229999999
  0
LINE
  5
A6CE
  8
DANMEN
  6
CONTINUOUS
 10
268.70670000000001
 20
175.54831899999991
 30
0.0
 11
268.65289899999999
 21
175.80582699999999
 31
0.0
  0
LINE
  5
A6CF
  8
DANMEN
  6
CONTINUOUS
 10
266.29352899999992
 20
176.34124099999991
 30
0.0
 11
265.90898299999998
 21
178.1817739999999
 31
0.0
  0
LINE
  5
A6D0
  8
DANMEN
  6
CONTINUOUS
 10
267.74459400000001
 20
176.730479
 30
0.0
 11
267.489756
 21
177.95020299999999
 31
0.0
  0
LINE
  5
A6D1
  8
DANMEN
  6
CONTINUOUS
 10
267.35909900000001
 20
174.960284
 30
0.0
 11
268.47439600000001
 21
175.19330500000001
 31
0.0
  0
ARC
  5
A6D2
  8
DANMEN
  6
CONTINUOUS
 10
268.41304100000002
 20
175.486964
 30
0.0
 40
0.3
 50
281.80114099999997
 51
11.801140999999999
  0
LINE
  5
A6D4
  8
DANMEN
  6
CONTINUOUS
 10
270.86020000000002
 20
175.99825300000001
 30
0.0
 11
270.80639799999989
 21
176.25576099999989
 31
0.0
  0
ARC
  5
A6D5
  8
DANMEN
  6
CONTINUOUS
 10
270.28963900000002
 20
177.2622199999999
 30
0.0
 40
1.0
 50
306.42545999999987
 51
11.801140999999999
  0
ARC
  5
A6D6
  8
DANMEN
  6
CONTINUOUS
 10
271.00217099999992
 20
176.29666399999991
 30
0.0
 40
0.2
 50
126.42546
 51
191.801141
  0
ARC
  5
A6D9
  8
DANMEN
  6
CONTINUOUS
 10
271.1538589999999
 20
176.059608
 30
0.0
 40
0.3
 50
191.801141
 51
281.80114099999997
  0
LINE
  5
A6DB
  8
DANMEN
  6
CONTINUOUS
 10
271.21521300000001
 20
175.76594899999989
 30
0.0
 11
271.415322
 21
175.80775800000001
 31
0.0
  0
LINE
  5
A6DC
  8
DANMEN
  6
CONTINUOUS
 10
271.415322
 20
175.5352399999999
 30
0.0
 11
271.415322
 21
175.80775800000001
 31
0.0
  0
ARC
  5
A6DD
  8
DANMEN
  6
CONTINUOUS
 10
272.415322
 20
175.5352399999999
 30
0.0
 40
1.0
 50
180.0
 51
270.0
  0
LINE
  5
A6E0
  8
DANMEN
  6
CONTINUOUS
 10
268.26410299999992
 20
179.13358199999999
 30
0.0
 11
269.830285
 21
179.46080599999999
 31
0.0
  0
ARC
  5
A6E2
  8
DANMEN
  6
CONTINUOUS
 10
270.03480000000002
 20
178.48194299999989
 30
0.0
 40
1.0
 50
11.801140999999999
 51
101.8011409999999
  0
ARC
  5
A6E3
  8
DANMEN
  6
CONTINUOUS
 10
270.415322
 20
182.848378
 30
0.0
 40
1.0
 50
281.76828899999998
 51
0.0
  0
LINE
  5
A6E5
  8
DANMEN
  6
CONTINUOUS
 10
264.415322
 20
195.0352399999999
 30
0.0
 11
270.415322
 21
195.0352399999999
 31
0.0
  0
LINE
  5
A6E6
  8
DANMEN
  6
CONTINUOUS
 10
259.41532199999989
 20
195.73523999999989
 30
0.0
 11
263.41532199999989
 21
195.73523999999989
 31
0.0
  0
LINE
  5
A6E8
  8
DANMEN
  6
CONTINUOUS
 10
263.41532199999989
 20
195.73523999999989
 30
0.0
 11
264.415322
 21
195.0352399999999
 31
0.0
  0
LINE
  5
A6EB
  8
DANMEN
  6
CONTINUOUS
 10
271.415322
 20
195.73523999999989
 30
0.0
 11
270.415322
 21
195.0352399999999
 31
0.0
  0
LINE
  5
A6EE
  8
DANMEN
  6
CONTINUOUS
 10
302.2653279999999
 20
174.5352399999999
 30
0.0
 11
302.2653279999999
 21
168.18523400000001
 31
0.0
  0
LINE
  5
A6EF
  8
DANMEN
  6
CONTINUOUS
 10
295.915322
 20
166.5352399999999
 30
0.0
 11
303.415322
 21
166.5352399999999
 31
0.0
  0
LINE
  5
A6F0
  8
DANMEN
  6
CONTINUOUS
 10
295.915322
 20
168.18523400000001
 30
0.0
 11
302.2653279999999
 21
168.18523400000001
 31
0.0
  0
ARC
  5
A6F1
  8
DANMEN
  6
CONTINUOUS
 10
295.915322
 20
167.0352399999999
 30
0.0
 40
0.5
 50
180.0000189999999
 51
270.000001
  0
LINE
  5
A6F4
  8
DANMEN
  6
CONTINUOUS
 10
295.415322
 20
167.68523400000001
 30
0.0
 11
295.415322
 21
167.0352399999999
 31
0.0
  0
ARC
  5
A6F5
  8
DANMEN
  6
CONTINUOUS
 10
295.915322
 20
167.68523400000001
 30
0.0
 40
0.5
 50
89.999981999999974
 51
180.0000189999999
  0
ARC
  5
A6F6
  8
DANMEN
  6
CONTINUOUS
 10
303.415322
 20
167.0352399999999
 30
0.0
 40
0.5
 50
270.0000179999999
 51
0.0
  0
LINE
  5
A6F9
  8
DANMEN
  6
CONTINUOUS
 10
288.37594299999989
 20
191.93523999999999
 30
0.0
 11
289.51532200000003
 21
191.93523999999999
 31
0.0
  0
ARC
  5
A6FA
  8
DANMEN
  6
CONTINUOUS
 10
290.11532199999999
 20
193.589179
 30
0.0
 40
1.0
 50
180.0
 51
245.3756819999999
  0
LINE
  5
A6FB
  8
DANMEN
  6
CONTINUOUS
 10
273.06532199999998
 20
176.18523400000001
 30
0.0
 11
302.2653279999999
 21
176.18523400000001
 31
0.0
  0
LINE
  5
A6FC
  8
DANMEN
  6
CONTINUOUS
 10
273.06532199999998
 20
176.18523400000001
 30
0.0
 11
273.06532199999998
 21
195.8852399999999
 31
0.0
  0
LINE
  5
A6FE
  8
DANMEN
  6
CONTINUOUS
 10
286.61532199999999
 20
195.8852399999999
 30
0.0
 11
273.06532199999998
 21
195.8852399999999
 31
0.0
  0
LINE
  5
A700
  8
DANMEN
  6
CONTINUOUS
 10
289.11532199999999
 20
193.589179
 30
0.0
 11
289.11532199999999
 21
194.83524
 31
0.0
  0
LINE
  5
A701
  8
DANMEN
  6
CONTINUOUS
 10
287.61532199999999
 20
193.50493399999999
 30
0.0
 11
287.61532199999999
 21
194.8852399999999
 31
0.0
  0
ARC
  5
A702
  8
DANMEN
  6
CONTINUOUS
 10
289.61532199999999
 20
193.50493399999999
 30
0.0
 40
2.0
 50
180.0
 51
231.706523
  0
LINE
  5
A704
  8
DANMEN
  6
CONTINUOUS
 10
302.26532200000003
 20
176.18523400000001
 30
0.0
 11
302.26532200000003
 21
195.8852399999999
 31
0.0
  0
LINE
  5
A707
  8
DANMEN
  6
CONTINUOUS
 10
302.26532200000003
 20
195.8852399999999
 30
0.0
 11
295.2153219999999
 21
195.8852399999999
 31
0.0
  0
LINE
  5
A708
  8
DANMEN
  6
CONTINUOUS
 10
292.31532199999998
 20
191.93523999999999
 30
0.0
 11
293.454701
 21
191.93523999999999
 31
0.0
  0
ARC
  5
A709
  8
DANMEN
  6
CONTINUOUS
 10
289.51532200000003
 20
192.23524
 30
0.0
 40
0.3
 50
270.0
 51
0.0
  0
ARC
  5
A70A
  8
DANMEN
  6
CONTINUOUS
 10
292.31532199999998
 20
192.23524
 30
0.0
 40
0.3
 50
180.0
 51
270.0
  0
LINE
  5
A70D
  8
DANMEN
  6
CONTINUOUS
 10
290.11532199999999
 20
195.83524
 30
0.0
 11
291.71532200000001
 21
195.83524
 31
0.0
  0
LINE
  5
A70E
  8
DANMEN
  6
CONTINUOUS
 10
289.81532199999998
 20
192.23524
 30
0.0
 11
289.81532199999998
 21
192.49830800000001
 31
0.0
  0
ARC
  5
A70F
  8
DANMEN
  6
CONTINUOUS
 10
289.61532199999999
 20
192.49830800000001
 30
0.0
 40
0.2
 50
0.0
 51
65.375681999999983
  0
LINE
  5
A710
  8
DANMEN
  6
CONTINUOUS
 10
292.71532200000001
 20
193.589179
 30
0.0
 11
292.71532200000001
 21
194.83524
 31
0.0
  0
ARC
  5
A711
  8
DANMEN
  6
CONTINUOUS
 10
292.21532200000001
 20
192.49830800000001
 30
0.0
 40
0.2
 50
114.6243179999999
 51
180.0
  0
ARC
  5
A712
  8
DANMEN
  6
CONTINUOUS
 10
291.71532200000001
 20
193.589179
 30
0.0
 40
1.0
 50
294.62431800000002
 51
0.0
  0
LINE
  5
A713
  8
DANMEN
  6
CONTINUOUS
 10
292.01532200000003
 20
192.23524
 30
0.0
 11
292.01532200000003
 21
192.49830800000001
 31
0.0
  0
LINE
  5
A715
  8
DANMEN
  6
CONTINUOUS
 10
294.21532200000001
 20
193.50493399999999
 30
0.0
 11
294.21532200000001
 21
194.8852399999999
 31
0.0
  0
ARC
  5
A716
  8
DANMEN
  6
CONTINUOUS
 10
292.21532200000001
 20
193.50493399999999
 30
0.0
 40
2.0
 50
308.293477
 51
0.0
  0
LINE
  5
A718
  8
DANMEN
  6
CONTINUOUS
 10
298.706211
 20
238.53523899999999
 30
0.0
 11
269.22523100000001
 21
238.53523899999999
 31
0.0
  0
LINE
  5
A719
  8
DANMEN
  6
CONTINUOUS
 10
286.61532599999992
 20
236.88523900000001
 30
0.0
 11
270.06532900000002
 21
236.88523900000001
 31
0.0
  0
LINE
  5
A71A
  8
DANMEN
  6
CONTINUOUS
 10
302.11532199999999
 20
197.53523999999999
 30
0.0
 11
260.56532199999998
 21
197.53523999999999
 31
0.0
  0
LINE
  5
A71B
  8
DANMEN
  6
DASHED
 10
259.41532199999989
 20
220.53433699999999
 30
0.0
 11
291.21532200000001
 21
220.53433699999999
 31
0.0
  0
LINE
  5
A71C
  8
DANMEN
  6
DASHED
 10
259.915322
 20
219.53433699999999
 30
0.0
 11
290.71532200000001
 21
219.53433699999999
 31
0.0
  0
LINE
  5
A71D
  8
DANMEN
  6
CONTINUOUS
 10
258.91532599999988
 20
203.035235
 30
0.0
 11
258.91532599999988
 21
240.03523899999999
 31
0.0
  0
LINE
  5
A71E
  8
DANMEN
  6
CONTINUOUS
 10
260.56532599999991
 20
225.885245
 30
0.0
 11
260.56532599999991
 21
204.18523500000001
 31
0.0
  0
LINE
  5
A71F
  8
DANMEN
  6
DASHED
 10
259.915322
 20
203.83523199999999
 30
0.0
 11
259.915322
 21
219.53433699999999
 31
0.0
  0
LINE
  5
A720
  8
DANMEN
  6
DASHED
 10
258.915322
 20
215.53433699999999
 30
0.0
 11
258.915322
 21
220.03433699999999
 31
0.0
  0
LINE
  5
A721
  8
DANMEN
  6
CONTINUOUS
 10
255.415322
 20
197.73524
 30
0.0
 11
258.915322
 21
197.73524
 31
0.0
  0
LINE
  5
A722
  8
DANMEN
  6
CONTINUOUS
 10
252.415322
 20
199.5352399999999
 30
0.0
 11
258.915322
 21
199.5352399999999
 31
0.0
  0
LINE
  5
A723
  8
DANMEN
  6
DASHED
 10
253.415322
 20
214.53433699999999
 30
0.0
 11
258.915322
 21
214.53433699999999
 31
0.0
  0
LINE
  5
A724
  8
DANMEN
  6
DASHED
 10
252.415322
 20
215.53433699999999
 30
0.0
 11
258.915322
 21
215.53433699999999
 31
0.0
  0
LINE
  5
A725
  8
DANMEN
  6
CONTINUOUS
 10
252.415322
 20
197.33523999999991
 30
0.0
 11
252.71532199999999
 21
197.33523999999991
 31
0.0
  0
LINE
  5
A726
  8
DANMEN
  6
CONTINUOUS
 10
251.9153189999999
 20
197.03524299999989
 30
0.0
 11
252.9153189999999
 21
197.03524299999989
 31
0.0
  0
LINE
  5
A727
  8
DANMEN
  6
CONTINUOUS
 10
251.915322
 20
199.0352399999999
 30
0.0
 11
251.915322
 21
197.83524299999991
 31
0.0
  0
ARC
  5
A728
  8
DANMEN
  6
CONTINUOUS
 10
252.415322
 20
199.0352399999999
 30
0.0
 40
0.5
 50
90.0
 51
180.0
  0
ARC
  5
A72A
  8
DANMEN
  6
CONTINUOUS
 10
252.415322
 20
197.83524
 30
0.0
 40
0.5
 50
180.0
 51
270.0
  0
LINE
  5
A72C
  8
DANMEN
  6
CONTINUOUS
 10
250.242797
 20
199.53524299999989
 30
0.0
 11
251.9153189999999
 21
199.53524299999989
 31
0.0
  0
LINE
  5
A72D
  8
DANMEN
  6
CONTINUOUS
 10
251.9153189999999
 20
199.53524299999989
 30
0.0
 11
251.9153189999999
 21
197.03524299999989
 31
0.0
  0
ARC
  5
A730
  8
DANMEN
  6
CONTINUOUS
 10
250.242797
 20
199.33524299999999
 30
0.0
 40
0.2
 50
90.0
 51
155.0260899999999
  0
LINE
  5
A732
  8
DANMEN
  6
CONTINUOUS
 10
250.49775299999999
 20
198.9352429999999
 30
0.0
 11
251.11531899999989
 21
198.9352429999999
 31
0.0
  0
LINE
  5
A736
  8
DANMEN
  6
CONTINUOUS
 10
252.71532199999999
 20
198.53523999999999
 30
0.0
 11
252.71532199999999
 21
197.33523999999991
 31
0.0
  0
LINE
  5
A737
  8
DANMEN
  6
CONTINUOUS
 10
252.71532500000001
 20
198.53523999999999
 30
0.0
 11
254.415322
 21
198.53523999999999
 31
0.0
  0
LINE
  5
A73C
  8
DANMEN
  6
CONTINUOUS
 10
253.9153189999999
 20
198.03524299999989
 30
0.0
 11
253.9153189999999
 21
197.03524299999989
 31
0.0
  0
LINE
  5
A73D
  8
DANMEN
  6
CONTINUOUS
 10
253.11531899999989
 20
198.23524299999991
 30
0.0
 11
253.71531899999999
 21
198.23524299999991
 31
0.0
  0
LINE
  5
A73E
  8
DANMEN
  6
CONTINUOUS
 10
252.9153189999999
 20
198.03524299999989
 30
0.0
 11
252.9153189999999
 21
197.03524299999989
 31
0.0
  0
ARC
  5
A740
  8
DANMEN
  6
CONTINUOUS
 10
253.71531899999999
 20
198.03524299999989
 30
0.0
 40
0.2
 50
0.0
 51
89.999981999999974
  0
ARC
  5
A742
  8
DANMEN
  6
CONTINUOUS
 10
253.11531899999989
 20
198.03524299999989
 30
0.0
 40
0.2
 50
89.999981999999974
 51
180.0000189999999
  0
LINE
  5
A744
  8
DANMEN
  6
CONTINUOUS
 10
253.9153189999999
 20
197.03524299999989
 30
0.0
 11
253.11531899999989
 21
196.23524299999991
 31
0.0
  0
LINE
  5
A748
  8
DANMEN
  6
DASHED
 10
252.415322
 20
214.03433699999999
 30
0.0
 11
252.915322
 21
214.03433699999999
 31
0.0
  0
LINE
  5
A749
  8
DANMEN
  6
DASHED
 10
251.915322
 20
214.53433699999999
 30
0.0
 11
251.915322
 21
215.03433699999999
 31
0.0
  0
ARC
  5
A74A
  8
DANMEN
  6
DASHED
 10
252.415322
 20
215.03433699999999
 30
0.0
 40
0.5
 50
90.0
 51
180.0
  0
ARC
  5
A74C
  8
DANMEN
  6
DASHED
 10
252.415322
 20
214.53433699999999
 30
0.0
 40
0.5
 50
180.0
 51
270.0
  0
ARC
  5
A74F
  8
DANMEN
  6
DASHED
 10
253.415322
 20
214.03433699999999
 30
0.0
 40
0.5
 50
90.0
 51
180.0
  0
LINE
  5
A751
  8
DANMEN
  6
DASHED
 10
258.915322
 20
202.53523200000001
 30
0.0
 11
258.915322
 21
214.53433699999999
 31
0.0
  0
LINE
  5
A752
  8
DANMEN
  6
CONTINUOUS
 10
262.5153259999999
 20
202.68523499999989
 30
0.0
 11
262.5153259999999
 21
198.53523200000001
 31
0.0
  0
LINE
  5
A753
  8
DANMEN
  6
CONTINUOUS
 10
261.0153259999999
 20
198.53523200000001
 30
0.0
 11
261.0153259999999
 21
202.53523499999989
 31
0.0
  0
LINE
  5
A754
  8
DANMEN
  6
CONTINUOUS
 10
260.915322
 20
202.0352399999999
 30
0.0
 11
260.915322
 21
201.0352399999999
 31
0.0
  0
LINE
  5
A755
  8
DANMEN
  6
CONTINUOUS
 10
258.915322
 20
202.0352399999999
 30
0.0
 11
258.915322
 21
199.5352399999999
 31
0.0
  0
LINE
  5
A756
  8
DANMEN
  6
DASHED
 10
260.915322
 20
202.83523199999999
 30
0.0
 11
260.915322
 21
201.03433699999999
 31
0.0
  0
LINE
  5
A757
  8
DANMEN
  6
DASHED
 10
261.915322
 20
202.83523199999999
 30
0.0
 11
261.915322
 21
198.6853209999999
 31
0.0
  0
LINE
  5
A758
  8
DANMEN
  6
CONTINUOUS
 10
260.56532199999998
 20
201.0352399999999
 30
0.0
 11
260.915322
 21
201.0352399999999
 31
0.0
  0
LINE
  5
A759
  8
DANMEN
  6
DASHED
 10
260.915322
 20
201.03433699999999
 30
0.0
 11
260.61532199999999
 21
200.83433699999989
 31
0.0
  0
LINE
  5
A75A
  8
DANMEN
  6
DASHED
 10
260.61532199999999
 20
200.334337
 30
0.0
 11
261.23305899999991
 21
198.5693729999999
 31
0.0
  0
LINE
  5
A75C
  8
DANMEN
  6
CONTINUOUS
 10
258.915322
 20
196.23524
 30
0.0
 11
258.915322
 21
197.73524
 31
0.0
  0
LINE
  5
A75D
  8
DANMEN
  6
CONTINUOUS
 10
260.56532199999998
 20
201.0352399999999
 30
0.0
 11
260.56532199999998
 21
197.53523999999999
 31
0.0
  0
LINE
  5
A764
  8
DANMEN
  6
DASHED
 10
260.61532199999999
 20
200.334337
 30
0.0
 11
260.61532199999999
 21
200.83433699999989
 31
0.0
  0
ARC
  5
A766
  8
DANMEN
  6
CONTINUOUS
 10
262.0153259999999
 20
198.53523200000001
 30
0.0
 40
0.5
 50
270.0
 51
0.0
  0
LINE
  5
A768
  8
DANMEN
  6
CONTINUOUS
 10
262.0153259999999
 20
198.03523200000001
 30
0.0
 11
261.5153259999999
 21
198.03523200000001
 31
0.0
  0
ARC
  5
A769
  8
DANMEN
  6
CONTINUOUS
 10
261.5153259999999
 20
198.53523200000001
 30
0.0
 40
0.5
 50
180.0
 51
270.0
  0
ARC
  5
A76E
  8
DANMEN
  6
DASHED
 10
261.56433799999991
 20
198.6853209999999
 30
0.0
 40
0.350984
 50
199.2900459999999
 51
0.0
  0
LINE
  5
A773
  8
DANMEN
  6
CONTINUOUS
 10
260.56532599999991
 20
204.18523500000001
 30
0.0
 11
261.0153259999999
 21
204.18523500000001
 31
0.0
  0
LINE
  5
A774
  8
DANMEN
  6
CONTINUOUS
 10
259.41532599999999
 20
202.53523499999989
 30
0.0
 11
261.0153259999999
 21
202.53523499999989
 31
0.0
  0
ARC
  5
A775
  8
DANMEN
  6
CONTINUOUS
 10
260.415322
 20
202.0352399999999
 30
0.0
 40
0.5
 50
0.0
 51
90.0
  0
LINE
  5
A776
  8
DANMEN
  6
DASHED
 10
259.915322
 20
203.83523199999999
 30
0.0
 11
260.915322
 21
203.83523199999999
 31
0.0
  0
LINE
  5
A777
  8
DANMEN
  6
DASHED
 10
259.915322
 20
202.83523199999999
 30
0.0
 11
260.915322
 21
202.83523199999999
 31
0.0
  0
ARC
  5
A77A
  8
DANMEN
  6
CONTINUOUS
 10
259.41532599999999
 20
203.035235
 30
0.0
 40
0.5
 50
180.0
 51
270.0
  0
LINE
  5
A77B
  8
DANMEN
  6
CONTINUOUS
 10
259.41532199999989
 20
202.53523999999999
 30
0.0
 11
260.415322
 21
202.53523999999999
 31
0.0
  0
ARC
  5
A77C
  8
DANMEN
  6
CONTINUOUS
 10
259.41532199999989
 20
202.0352399999999
 30
0.0
 40
0.5
 50
90.0
 51
180.0
  0
LINE
  5
A781
  8
DANMEN
  6
DASHED
 10
259.915322
 20
202.83523199999999
 30
0.0
 11
259.915322
 21
202.53523200000001
 31
0.0
  0
LINE
  5
A782
  8
DANMEN
  6
DASHED
 10
258.915322
 20
202.53523200000001
 30
0.0
 11
259.915322
 21
202.53523200000001
 31
0.0
  0
ARC
  5
A785
  8
DANMEN
  6
CONTINUOUS
 10
261.0153259999999
 20
202.68523499999989
 30
0.0
 40
1.5
 50
0.0
 51
90.0
  0
ARC
  5
A789
  8
DANMEN
  6
DASHED
 10
260.915322
 20
202.83523199999999
 30
0.0
 40
1.0
 50
0.0
 51
90.0
  0
ARC
  5
A78E
  8
DANMEN
  6
CONTINUOUS
 10
268.56532900000002
 20
231.38523900000001
 30
0.0
 40
1.5
 50
270.0
 51
0.0
  0
LINE
  5
A78F
  8
DANMEN
  6
CONTINUOUS
 10
268.56532900000002
 20
229.8852389999999
 30
0.0
 11
261.915323
 21
229.8852389999999
 31
0.0
  0
ARC
  5
A791
  8
DANMEN
  6
DASHED
 10
259.41532199999989
 20
220.03433699999999
 30
0.0
 40
0.5
 50
90.0
 51
180.0
  0
LINE
  5
A793
  8
DANMEN
  6
CONTINUOUS
 10
260.56532299999992
 20
225.88523900000001
 30
0.0
 11
261.915323
 21
228.88523900000001
 31
0.0
  0
LINE
  5
A796
  8
DANMEN
  6
CONTINUOUS
 10
261.915323
 20
229.8852389999999
 30
0.0
 11
261.915323
 21
228.88523900000001
 31
0.0
  0
LINE
  5
A798
  8
DANMEN
  6
CONTINUOUS
 10
268.41532899999987
 20
231.53523899999999
 30
0.0
 11
261.915323
 21
231.53523899999999
 31
0.0
  0
LINE
  5
A799
  8
DANMEN
  6
CONTINUOUS
 10
261.11530399999998
 20
238.3352359999999
 30
0.0
 11
267.66278099999988
 21
234.23523599999999
 31
0.0
  0
LINE
  5
A79A
  8
DANMEN
  6
CONTINUOUS
 10
263.21530399999989
 20
238.55407199999999
 30
0.0
 11
268.28066799999999
 21
235.38216399999999
 31
0.0
  0
LINE
  5
A79B
  8
DANMEN
  6
CONTINUOUS
 10
260.56532299999992
 20
239.03523899999999
 30
0.0
 11
260.56532299999992
 21
235.53523899999999
 31
0.0
  0
LINE
  5
A79C
  8
DANMEN
  6
CONTINUOUS
 10
260.56532299999992
 20
235.53523899999999
 30
0.0
 11
261.915323
 21
232.53523899999999
 31
0.0
  0
LINE
  5
A7A2
  8
DANMEN
  6
CONTINUOUS
 10
261.915323
 20
231.53523899999999
 30
0.0
 11
261.915323
 21
232.53523899999999
 31
0.0
  0
LINE
  5
A7A3
  8
DANMEN
  6
CONTINUOUS
 10
261.10630600000002
 20
240.53523899999999
 30
0.0
 11
259.41532599999999
 21
240.53523899999999
 31
0.0
  0
LINE
  5
A7A4
  8
DANMEN
  6
CONTINUOUS
 10
260.56532299999992
 20
239.03523899999999
 30
0.0
 11
261.61532299999999
 21
239.03523899999999
 31
0.0
  0
LINE
  5
A7A5
  8
DANMEN
  6
CONTINUOUS
 10
259.41530399999999
 20
240.535236
 30
0.0
 11
260.86530399999992
 21
240.535236
 31
0.0
  0
ARC
  5
A7A7
  8
DANMEN
  6
CONTINUOUS
 10
259.41532599999999
 20
240.03523899999999
 30
0.0
 40
0.5
 50
90.0
 51
180.0
  0
ARC
  5
A7A9
  8
DANMEN
  6
CONTINUOUS
 10
259.41530399999999
 20
241.035236
 30
0.0
 40
0.5
 50
180.0
 51
270.0
  0
LINE
  5
A7AD
  8
DANMEN
  6
CONTINUOUS
 10
261.915323
 20
239.33523899999989
 30
0.0
 11
261.915323
 21
239.53523899999999
 31
0.0
  0
ARC
  5
A7AE
  8
DANMEN
  6
CONTINUOUS
 10
261.61532299999999
 20
239.33523899999989
 30
0.0
 40
0.3
 50
270.0
 51
0.0
  0
LINE
  5
A7B2
  8
DANMEN
  6
CONTINUOUS
 10
261.915323
 20
239.53523899999999
 30
0.0
 11
261.55351999999999
 21
240.25884500000001
 31
0.0
  0
ARC
  5
A7B3
  8
DANMEN
  6
CONTINUOUS
 10
261.10630600000002
 20
240.03523899999999
 30
0.0
 40
0.5
 50
26.565051
 51
90.0
  0
LINE
  5
A7B5
  8
DANMEN
  6
CONTINUOUS
 10
261.91530399999999
 20
240.8352359999999
 30
0.0
 11
261.91530399999999
 21
239.035236
 31
0.0
  0
LINE
  5
A7B6
  8
DANMEN
  6
CONTINUOUS
 10
260.86530399999992
 20
240.8352359999999
 30
0.0
 11
261.91530399999999
 21
240.8352359999999
 31
0.0
  0
LINE
  5
A7B8
  8
DANMEN
  6
CONTINUOUS
 10
260.86530399999992
 20
240.8352359999999
 30
0.0
 11
260.86530399999992
 21
240.535236
 31
0.0
  0
LINE
  5
A7BA
  8
DANMEN
  6
CONTINUOUS
 10
261.11530399999998
 20
238.8352359999999
 30
0.0
 11
261.91530399999999
 21
239.035236
 31
0.0
  0
LINE
  5
A7BB
  8
DANMEN
  6
CONTINUOUS
 10
261.11530399999998
 20
238.8352359999999
 30
0.0
 11
261.11530399999998
 21
238.3352359999999
 31
0.0
  0
LINE
  5
A7BE
  8
DANMEN
  6
CONTINUOUS
 10
263.21530399999989
 20
241.3352359999999
 30
0.0
 11
263.21530399999989
 21
238.55407199999999
 31
0.0
  0
LINE
  5
A7BF
  8
DANMEN
  6
CONTINUOUS
 10
261.36530399999992
 20
242.3352359999999
 30
0.0
 11
262.215304
 21
242.3352359999999
 31
0.0
  0
LINE
  5
A7C5
  8
DANMEN
  6
CONTINUOUS
 10
268.41532899999987
 20
236.53523899999999
 30
0.0
 11
268.73494099999988
 21
238.133297
 31
0.0
  0
LINE
  5
A7C6
  8
DANMEN
  6
CONTINUOUS
 10
270.06532900000002
 20
236.88523900000001
 30
0.0
 11
270.06532900000002
 21
231.38523900000001
 31
0.0
  0
LINE
  5
A7C8
  8
DANMEN
  6
CONTINUOUS
 10
268.41532899999987
 20
236.53523899999999
 30
0.0
 11
268.41532899999987
 21
231.53523899999999
 31
0.0
  0
LINE
  5
A7CA
  8
DANMEN
  6
CONTINUOUS
 10
268.51530400000001
 20
234.958393
 30
0.0
 11
268.51530400000001
 21
234.7352359999999
 31
0.0
  0
LINE
  5
A7CB
  8
DANMEN
  6
CONTINUOUS
 10
267.66278099999988
 20
234.23523599999999
 30
0.0
 11
268.0153039999999
 21
234.23523599999999
 31
0.0
  0
ARC
  5
A7CC
  8
DANMEN
  6
CONTINUOUS
 10
268.0153039999999
 20
234.958393
 30
0.0
 40
0.5
 50
0.0
 51
57.945390000000003
  0
ARC
  5
A7CE
  8
DANMEN
  6
CONTINUOUS
 10
268.0153039999999
 20
234.7352359999999
 30
0.0
 40
0.5
 50
270.0
 51
0.0
  0
ARC
  5
A7D1
  8
DANMEN
  6
CONTINUOUS
 10
269.22523100000001
 20
238.03523899999999
 30
0.0
 40
0.5
 50
90.0
 51
168.69006799999991
  0
LINE
  5
A7D4
  8
DANMEN
  6
CONTINUOUS
 10
302.2653279999999
 20
237.52734699999999
 30
0.0
 11
302.2653279999999
 21
216.39231699999991
 31
0.0
  0
LINE
  5
A7D5
  8
DANMEN
  6
CONTINUOUS
 10
299.41531999999989
 20
229.39451199999999
 30
0.0
 11
299.41531999999989
 21
211.5352399999999
 31
0.0
  0
LINE
  5
A7D6
  8
DANMEN
  6
CONTINUOUS
 10
292.5153259999999
 20
221.53524100000001
 30
0.0
 11
292.5153259999999
 21
216.53524100000001
 31
0.0
  0
LINE
  5
A7D7
  8
DANMEN
  6
CONTINUOUS
 10
285.86532599999998
 20
219.88524100000001
 30
0.0
 11
285.86532599999998
 21
215.78524100000001
 31
0.0
  0
LINE
  5
A7D8
  8
DANMEN
  6
CONTINUOUS
 10
287.5153259999999
 20
219.73524
 30
0.0
 11
287.5153259999999
 21
215.93524099999999
 31
0.0
  0
ARC
  5
A7D9
  8
DANMEN
  6
CONTINUOUS
 10
290.21042999999992
 20
218.73524099999989
 30
0.0
 40
1.0
 50
12.339088
 51
90.0
  0
LINE
  5
A7DA
  8
DANMEN
  6
CONTINUOUS
 10
299.71532300000001
 20
237.234567
 30
0.0
 11
299.71532300000001
 21
211.815406
 31
0.0
  0
LINE
  5
A7DB
  8
DANMEN
  6
CONTINUOUS
 10
299.415323
 20
237.03523899999999
 30
0.0
 11
299.415323
 21
211.815406
 31
0.0
  0
LINE
  5
A7DC
  8
DANMEN
  6
CONTINUOUS
 10
301.415323
 20
237.03523899999999
 30
0.0
 11
300.43204400000002
 21
212.29554899999999
 31
0.0
  0
LINE
  5
A7DD
  8
DANMEN
  6
DASHED
 10
290.71532200000001
 20
217.53433699999999
 30
0.0
 11
290.71532200000001
 21
219.53433699999999
 31
0.0
  0
LINE
  5
A7DE
  8
DANMEN
  6
DASHED
 10
291.71532200000001
 20
217.03433699999999
 30
0.0
 11
291.71532200000001
 21
220.03433699999999
 31
0.0
  0
CIRCLE
  5
A7DF
  8
DANMEN
  6
CONTINUOUS
 10
289.2653259999999
 20
217.835241
 30
0.0
 40
2.0
  0
ARC
  5
A7E0
  8
DANMEN
  6
CONTINUOUS
 10
288.61532599999998
 20
214.93524099999999
 30
0.0
 40
1.0
 50
0.0
 51
90.0
  0
ARC
  5
A7E1
  8
DANMEN
  6
CONTINUOUS
 10
289.11532599999992
 20
212.035235
 30
0.0
 40
0.5
 50
270.0
 51
0.0
  0
ARC
  5
A7E2
  8
DANMEN
  6
DASHED
 10
289.71532200000001
 20
209.9352319999999
 30
0.0
 40
1.0
 50
180.0
 51
270.0
  0
ARC
  5
A7E3
  8
DANMEN
  6
DASHED
 10
289.71532200000001
 20
216.53433699999999
 30
0.0
 40
1.0
 50
90.0
 51
180.0
  0
LINE
  5
A7E4
  8
DANMEN
  6
CONTINUOUS
 10
288.11532599999992
 20
214.28524100000001
 30
0.0
 11
288.11532599999992
 21
212.035235
 31
0.0
  0
LINE
  5
A7E5
  8
DANMEN
  6
DASHED
 10
288.71532200000001
 20
209.9352319999999
 30
0.0
 11
288.71532200000001
 21
216.53433699999999
 31
0.0
  0
LINE
  5
A7E6
  8
DANMEN
  6
CONTINUOUS
 10
289.11532599999992
 20
211.535235
 30
0.0
 11
288.61532599999998
 21
211.535235
 31
0.0
  0
ARC
  5
A7E7
  8
DANMEN
  6
CONTINUOUS
 10
288.61532599999998
 20
212.035235
 30
0.0
 40
0.5
 50
180.0
 51
270.0
  0
LINE
  5
A7EC
  8
DANMEN
  6
CONTINUOUS
 10
287.36532599999992
 20
214.28524100000001
 30
0.0
 11
288.11532599999992
 21
214.28524100000001
 31
0.0
  0
LINE
  5
A7EE
  8
DANMEN
  6
CONTINUOUS
 10
287.5153259999999
 20
215.93524099999999
 30
0.0
 11
288.61532599999998
 21
215.93524099999999
 31
0.0
  0
ARC
  5
A7EF
  8
DANMEN
  6
CONTINUOUS
 10
287.36532599999992
 20
215.78524100000001
 30
0.0
 40
1.5
 50
180.0
 51
270.0
  0
CIRCLE
  5
A7F3
  8
DANMEN
  6
CONTINUOUS
 10
288.85352499999988
 20
218.65914900000001
 30
0.0
 40
0.1
  0
CIRCLE
  5
A7F4
  8
DANMEN
  6
CONTINUOUS
 10
287.72923399999991
 20
217.9725589999999
 30
0.0
 40
0.1
  0
CIRCLE
  5
A7F5
  8
DANMEN
  6
CONTINUOUS
 10
288.07252899999997
 20
219.002444
 30
0.0
 40
0.1
  0
CIRCLE
  5
A7F6
  8
DANMEN
  6
CONTINUOUS
 10
288.493065
 20
217.46619899999999
 30
0.0
 40
0.1
  0
CIRCLE
  5
A7F7
  8
DANMEN
  6
CONTINUOUS
 10
289.16249099999987
 20
216.77960899999991
 30
0.0
 40
0.1
  0
CIRCLE
  5
A7F8
  8
DANMEN
  6
CONTINUOUS
 10
287.94379300000003
 20
216.77960899999991
 30
0.0
 40
0.1
  0
CIRCLE
  5
A7F9
  8
DANMEN
  6
CONTINUOUS
 10
288.79344900000001
 20
216.22175399999989
 30
0.0
 40
0.1
  0
LINE
  5
A7FA
  8
DANMEN
  6
CONTINUOUS
 10
299.41531999999989
 20
209.8852399999999
 30
0.0
 11
299.41531999999989
 21
197.53523999999999
 31
0.0
  0
LINE
  5
A7FB
  8
DANMEN
  6
CONTINUOUS
 10
302.11532199999999
 20
209.8852399999999
 30
0.0
 11
302.11532199999999
 21
197.53523999999999
 31
0.0
  0
LINE
  5
A7FD
  8
DANMEN
  6
CONTINUOUS
 10
290.21532200000001
 20
209.8852399999999
 30
0.0
 11
302.11532199999999
 21
209.8852399999999
 31
0.0
  0
LINE
  5
A7FE
  8
DANMEN
  6
CONTINUOUS
 10
291.51532200000003
 20
211.5352399999999
 30
0.0
 11
302.11532199999999
 21
211.5352399999999
 31
0.0
  0
LINE
  5
A7FF
  8
DANMEN
  6
CONTINUOUS
 10
289.61532599999992
 20
214.93524099999999
 30
0.0
 11
289.61532599999992
 21
212.035235
 31
0.0
  0
LINE
  5
A800
  8
DANMEN
  6
CONTINUOUS
 10
291.51532200000003
 20
215.5352399999999
 30
0.0
 11
291.51532200000003
 21
211.5352399999999
 31
0.0
  0
LINE
  5
A801
  8
DANMEN
  6
CONTINUOUS
 10
289.71532200000001
 20
216.0352399999999
 30
0.0
 11
289.71532200000001
 21
210.38524000000001
 31
0.0
  0
LINE
  5
A802
  8
DANMEN
  6
DASHED
 10
289.71532200000001
 20
212.03523199999989
 30
0.0
 11
289.71532200000001
 21
216.53433699999999
 31
0.0
  0
ARC
  5
A804
  8
DANMEN
  6
CONTINUOUS
 10
290.21532200000001
 20
210.38524000000001
 30
0.0
 40
0.5
 50
180.0
 51
270.0
  0
LINE
  5
A807
  8
DANMEN
  6
DASHED
 10
290.53962000000001
 20
208.93523200000001
 30
0.0
 11
289.71532200000001
 21
208.93523200000001
 31
0.0
  0
LINE
  5
A808
  8
DANMEN
  6
DASHED
 10
290.81532199999998
 20
209.9352319999999
 30
0.0
 11
289.915322
 21
209.9352319999999
 31
0.0
  0
LINE
  5
A809
  8
DANMEN
  6
DASHED
 10
289.915322
 20
209.9352319999999
 30
0.0
 11
289.915322
 21
211.43523200000001
 31
0.0
  0
ARC
  5
A80D
  8
DANMEN
  6
DASHED
 10
291.51532200000003
 20
208.93523200000001
 30
0.0
 40
0.5
 50
239.17274199999989
 51
59.172742000000007
  0
LINE
  5
A80E
  8
DANMEN
  6
DASHED
 10
290.81532199999998
 20
209.9352319999999
 30
0.0
 11
291.771548
 21
209.36458999999991
 31
0.0
  0
LINE
  5
A80F
  8
DANMEN
  6
DASHED
 10
290.53962000000001
 20
208.93523200000001
 30
0.0
 11
291.259096
 21
208.50587400000001
 31
0.0
  0
ARC
  5
A813
  8
DANMEN
  6
DASHED
 10
290.71532200000001
 20
212.03523199999989
 30
0.0
 40
1.0
 50
180.0
 51
216.86989800000001
  0
LINE
  5
A816
  8
DANMEN
  6
CONTINUOUS
 10
290.21532200000001
 20
216.5352399999999
 30
0.0
 11
293.76532200000003
 21
216.5352399999999
 31
0.0
  0
ARC
  5
A817
  8
DANMEN
  6
CONTINUOUS
 10
293.26532200000003
 20
216.0352399999999
 30
0.0
 40
0.5
 50
270.0
 51
0.0
  0
LINE
  5
A81A
  8
DANMEN
  6
CONTINUOUS
 10
292.5153259999999
 20
216.53524100000001
 30
0.0
 11
292.117774
 21
216.5352399999999
 31
0.0
  0
ARC
  5
A81C
  8
DANMEN
  6
CONTINUOUS
 10
292.117774
 20
217.03523999999999
 30
0.0
 40
0.5
 50
192.33908799999989
 51
270.0
  0
LINE
  5
A81D
  8
DANMEN
  6
CONTINUOUS
 10
291.18732999999992
 20
218.94893699999989
 30
0.0
 11
291.62932399999988
 21
216.928392
 31
0.0
  0
LINE
  5
A81F
  8
DANMEN
  6
CONTINUOUS
 10
291.51532200000003
 20
215.5352399999999
 30
0.0
 11
293.26532200000003
 21
215.5352399999999
 31
0.0
  0
ARC
  5
A820
  8
DANMEN
  6
CONTINUOUS
 10
290.21532200000001
 20
216.0352399999999
 30
0.0
 40
0.5
 50
90.0
 51
180.0
  0
LINE
  5
A824
  8
DANMEN
  6
DASHED
 10
289.71532200000001
 20
217.53433699999999
 30
0.0
 11
290.71532200000001
 21
217.53433699999999
 31
0.0
  0
ARC
  5
A827
  8
DANMEN
  6
DASHED
 10
291.21532200000001
 20
217.03433699999999
 30
0.0
 40
0.5
 50
270.0
 51
0.0
  0
LINE
  5
A828
  8
DANMEN
  6
DASHED
 10
289.71532200000001
 20
216.53433699999999
 30
0.0
 11
291.21532200000001
 21
216.53433699999999
 31
0.0
  0
CIRCLE
  5
A829
  8
DANMEN
  6
CONTINUOUS
 10
290.037893
 20
219.002444
 30
0.0
 40
0.1
  0
CIRCLE
  5
A82A
  8
DANMEN
  6
CONTINUOUS
 10
290.037893
 20
219.002444
 30
0.0
 40
0.1
  0
CIRCLE
  5
A82B
  8
DANMEN
  6
CONTINUOUS
 10
290.037893
 20
219.002444
 30
0.0
 40
0.1
  0
CIRCLE
  5
A82C
  8
DANMEN
  6
CONTINUOUS
 10
290.6386589999999
 20
218.10987700000001
 30
0.0
 40
0.1
  0
CIRCLE
  5
A82D
  8
DANMEN
  6
CONTINUOUS
 10
289.79758700000002
 20
217.44045199999991
 30
0.0
 40
0.1
  0
CIRCLE
  5
A82E
  8
DANMEN
  6
CONTINUOUS
 10
290.70731799999999
 20
217.01133299999989
 30
0.0
 40
0.1
  0
CIRCLE
  5
A82F
  8
DANMEN
  6
CONTINUOUS
 10
290.04647499999987
 20
216.3676549999999
 30
0.0
 40
0.1
  0
CIRCLE
  5
A830
  8
DANMEN
  6
CONTINUOUS
 10
289.48862100000002
 20
218.05838299999999
 30
0.0
 40
0.1
  0
LINE
  5
A831
  8
DANMEN
  6
CONTINUOUS
 10
293.76532200000003
 20
216.5352399999999
 30
0.0
 11
293.76532200000003
 21
216.0352399999999
 31
0.0
  0
LINE
  5
A834
  8
DANMEN
  6
CONTINUOUS
 10
302.11532199999999
 20
216.0352399999999
 30
0.0
 11
302.11532199999999
 21
211.5352399999999
 31
0.0
  0
LINE
  5
A838
  8
DANMEN
  6
CONTINUOUS
 10
299.415323
 20
211.815406
 30
0.0
 11
299.93243799999999
 21
211.815406
 31
0.0
  0
ARC
  5
A839
  8
DANMEN
  6
CONTINUOUS
 10
299.93243799999999
 20
212.315406
 30
0.0
 40
0.5
 50
270.0
 51
357.72397699999988
  0
LINE
  5
A83C
  8
DANMEN
  6
CONTINUOUS
 10
302.61532199999999
 20
216.5352399999999
 30
0.0
 11
303.415322
 21
216.5352399999999
 31
0.0
  0
ARC
  5
A83D
  8
DANMEN
  6
CONTINUOUS
 10
302.61532199999999
 20
216.0352399999999
 30
0.0
 40
0.5
 50
90.0
 51
180.0
  0
ARC
  5
A83F
  8
DANMEN
  6
CONTINUOUS
 10
303.415322
 20
216.0352399999999
 30
0.0
 40
0.5
 50
0.0
 51
90.0
  0
LINE
  5
A841
  8
DANMEN
  6
CONTINUOUS
 10
287.36532599999992
 20
221.38524100000001
 30
0.0
 11
290.20701000000003
 21
221.38524100000001
 31
0.0
  0
LINE
  5
A842
  8
DANMEN
  6
CONTINUOUS
 10
287.5153259999999
 20
219.735241
 30
0.0
 11
290.21042999999992
 21
219.735241
 31
0.0
  0
LINE
  5
A843
  8
DANMEN
  6
CONTINUOUS
 10
288.375947
 20
232.935239
 30
0.0
 11
289.5153259999999
 21
232.935239
 31
0.0
  0
ARC
  5
A844
  8
DANMEN
  6
CONTINUOUS
 10
290.11532599999998
 20
235.83523899999989
 30
0.0
 40
1.0
 50
90.0
 51
180.0
  0
ARC
  5
A845
  8
DANMEN
  6
CONTINUOUS
 10
290.11532599999998
 20
234.58917799999989
 30
0.0
 40
1.0
 50
180.0
 51
245.3756819999999
  0
ARC
  5
A847
  8
DANMEN
  6
CONTINUOUS
 10
287.36532599999992
 20
219.88524100000001
 30
0.0
 40
1.5
 50
90.0
 51
180.0
  0
CIRCLE
  5
A849
  8
DANMEN
  6
CONTINUOUS
 10
289.239732
 20
219.4315629999999
 30
0.0
 40
0.1
  0
ARC
  5
A84A
  8
DANMEN
  6
CONTINUOUS
 10
286.61532599999992
 20
235.88523900000001
 30
0.0
 40
1.0
 50
0.0
 51
90.0
  0
LINE
  5
A84B
  8
DANMEN
  6
CONTINUOUS
 10
289.11532599999992
 20
234.58917799999989
 30
0.0
 11
289.11532599999992
 21
235.83523899999989
 31
0.0
  0
ARC
  5
A84C
  8
DANMEN
  6
CONTINUOUS
 10
289.61532599999992
 20
234.504932
 30
0.0
 40
2.0
 50
180.0
 51
231.706523
  0
LINE
  5
A84D
  8
DANMEN
  6
CONTINUOUS
 10
287.61532599999992
 20
234.504932
 30
0.0
 11
287.61532599999992
 21
235.88523900000001
 31
0.0
  0
LINE
  5
A84F
  8
DANMEN
  6
CONTINUOUS
 10
297.76532300000002
 20
230.14850200000001
 30
0.0
 11
297.76532300000002
 21
236.88523900000001
 31
0.0
  0
LINE
  5
A850
  8
DANMEN
  6
CONTINUOUS
 10
299.415323
 20
229.72107500000001
 30
0.0
 11
299.415323
 21
237.035237
 31
0.0
  0
LINE
  5
A851
  8
DANMEN
  6
CONTINUOUS
 10
290.20701000000003
 20
221.38524100000001
 30
0.0
 11
297.76532300000002
 21
230.14850200000001
 31
0.0
  0
LINE
  5
A852
  8
DANMEN
  6
CONTINUOUS
 10
292.5153259999999
 20
221.53524100000001
 30
0.0
 11
299.29394699999989
 21
229.39451199999999
 31
0.0
  0
ARC
  5
A858
  8
DANMEN
  6
DASHED
 10
291.21532200000001
 20
220.03433699999999
 30
0.0
 40
0.5
 50
0.0
 51
90.0
  0
ARC
  5
A85A
  8
DANMEN
  6
CONTINUOUS
 10
298.91532299999989
 20
229.72107500000001
 30
0.0
 40
0.5
 50
319.22222999999991
 51
0.0
  0
LINE
  5
A85C
  8
DANMEN
  6
CONTINUOUS
 10
297.76532300000002
 20
236.88523900000001
 30
0.0
 11
295.215326
 21
236.88523900000001
 31
0.0
  0
ARC
  5
A85D
  8
DANMEN
  6
CONTINUOUS
 10
295.215326
 20
235.88523900000001
 30
0.0
 40
1.0
 50
90.0
 51
180.0
  0
ARC
  5
A85E
  8
DANMEN
  6
CONTINUOUS
 10
291.715326
 20
235.83523899999989
 30
0.0
 40
1.0
 50
0.0
 51
90.0
  0
LINE
  5
A85F
  8
DANMEN
  6
CONTINUOUS
 10
292.31532599999991
 20
232.935239
 30
0.0
 11
293.45470499999988
 21
232.935239
 31
0.0
  0
ARC
  5
A860
  8
DANMEN
  6
CONTINUOUS
 10
289.5153259999999
 20
233.23523900000001
 30
0.0
 40
0.3
 50
270.0
 51
0.0
  0
ARC
  5
A861
  8
DANMEN
  6
CONTINUOUS
 10
292.31532599999991
 20
233.23523900000001
 30
0.0
 40
0.3
 50
180.0
 51
270.0
  0
LINE
  5
A864
  8
DANMEN
  6
CONTINUOUS
 10
289.81532599999991
 20
233.23523900000001
 30
0.0
 11
289.81532599999991
 21
233.4983069999999
 31
0.0
  0
ARC
  5
A865
  8
DANMEN
  6
CONTINUOUS
 10
289.61532599999992
 20
233.4983069999999
 30
0.0
 40
0.2
 50
0.0
 51
65.375681999999983
  0
LINE
  5
A866
  8
DANMEN
  6
CONTINUOUS
 10
292.715326
 20
234.58917799999989
 30
0.0
 11
292.715326
 21
235.83523899999989
 31
0.0
  0
ARC
  5
A867
  8
DANMEN
  6
CONTINUOUS
 10
292.21532599999989
 20
233.4983069999999
 30
0.0
 40
0.2
 50
114.6243179999999
 51
180.0
  0
ARC
  5
A868
  8
DANMEN
  6
CONTINUOUS
 10
291.715326
 20
234.58917799999989
 30
0.0
 40
1.0
 50
294.62431800000002
 51
0.0
  0
LINE
  5
A869
  8
DANMEN
  6
CONTINUOUS
 10
292.0153259999999
 20
233.23523900000001
 30
0.0
 11
292.0153259999999
 21
233.4983069999999
 31
0.0
  0
ARC
  5
A86A
  8
DANMEN
  6
CONTINUOUS
 10
292.21532599999989
 20
234.504932
 30
0.0
 40
2.0
 50
308.293477
 51
0.0
  0
LINE
  5
A86B
  8
DANMEN
  6
CONTINUOUS
 10
294.21532599999989
 20
234.504932
 30
0.0
 11
294.21532599999989
 21
235.88523900000001
 31
0.0
  0
LINE
  5
A86C
  8
DANMEN
  6
CONTINUOUS
 10
290.11532599999998
 20
236.835239
 30
0.0
 11
291.715326
 21
236.835239
 31
0.0
  0
LINE
  5
A871
  8
DANMEN
  6
CONTINUOUS
 10
300.91532299999989
 20
237.03523899999999
 30
0.0
 11
301.415323
 21
237.03523899999999
 31
0.0
  0
LINE
  5
A872
  8
DANMEN
  6
CONTINUOUS
 10
300.91532299999989
 20
237.94828199999989
 30
0.0
 11
299.415323
 21
237.03523899999999
 31
0.0
  0
LINE
  5
A875
  8
DANMEN
  6
CONTINUOUS
 10
370.484217
 20
206.8852399999999
 30
0.0
 11
370.484217
 21
165.18523999999991
 31
0.0
  0
LINE
  5
A877
  8
DANMEN
  6
CONTINUOUS
 10
362.48421699999989
 20
171.5352399999999
 30
0.0
 11
362.48421699999989
 21
164.0352399999999
 31
0.0
  0
ARC
  5
A878
  8
DANMEN
  6
CONTINUOUS
 10
362.98421699999989
 20
164.0352399999999
 30
0.0
 40
0.5
 50
180.0
 51
270.0
  0
LINE
  5
A87A
  8
DANMEN
  6
CONTINUOUS
 10
363.63421699999992
 20
172.0352399999999
 30
0.0
 11
362.98421699999989
 21
172.0352399999999
 31
0.0
  0
ARC
  5
A87B
  8
DANMEN
  6
CONTINUOUS
 10
362.98421699999989
 20
171.5352399999999
 30
0.0
 40
0.5
 50
90.0
 51
180.0
  0
LINE
  5
A87D
  8
DANMEN
  6
CONTINUOUS
 10
364.13421699999992
 20
171.5352399999999
 30
0.0
 11
364.13421699999992
 21
165.18523999999991
 31
0.0
  0
LINE
  5
A87E
  8
DANMEN
  6
CONTINUOUS
 10
370.484217
 20
165.18523999999991
 30
0.0
 11
364.13421699999992
 21
165.18523999999991
 31
0.0
  0
ARC
  5
A881
  8
DANMEN
  6
CONTINUOUS
 10
363.63421699999992
 20
171.5352399999999
 30
0.0
 40
0.5
 50
0.0
 51
90.0
  0
LINE
  5
A883
  8
DANMEN
  6
CONTINUOUS
 10
348.484217
 20
208.53523999999999
 30
0.0
 11
357.484217
 21
208.53523999999999
 31
0.0
  0
LINE
  5
A884
  8
DANMEN
  6
CONTINUOUS
 10
348.484217
 20
206.8852399999999
 30
0.0
 11
362.48421699999989
 21
206.8852399999999
 31
0.0
  0
ARC
  5
A887
  8
DANMEN
  6
CONTINUOUS
 10
348.484217
 20
208.0352399999999
 30
0.0
 40
0.5
 50
89.999981999999974
 51
180.0000189999999
  0
ARC
  5
A888
  8
DANMEN
  6
CONTINUOUS
 10
348.484217
 20
207.3852399999999
 30
0.0
 40
0.5
 50
180.0000189999999
 51
270.000001
  0
LINE
  5
A889
  8
DANMEN
  6
CONTINUOUS
 10
347.98421699999989
 20
208.0352399999999
 30
0.0
 11
347.98421699999989
 21
207.3852399999999
 31
0.0
  0
LINE
  5
A88A
  8
DANMEN
  6
CONTINUOUS
 10
370.83421699999991
 20
211.5352399999999
 30
0.0
 11
370.83421699999991
 21
208.53523999999999
 31
0.0
  0
LINE
  5
A88B
  8
DANMEN
  6
CONTINUOUS
 10
359.13421099999988
 20
208.53523999999999
 30
0.0
 11
370.83422299999989
 21
208.53523999999999
 31
0.0
  0
LINE
  5
A88C
  8
DANMEN
  6
CONTINUOUS
 10
362.98421699999989
 20
204.0352399999999
 30
0.0
 11
363.63421099999999
 21
204.0352399999999
 31
0.0
  0
LINE
  5
A88D
  8
DANMEN
  6
CONTINUOUS
 10
362.48421699999989
 20
206.8852399999999
 30
0.0
 11
362.48421699999989
 21
204.53523999999999
 31
0.0
  0
ARC
  5
A88F
  8
DANMEN
  6
CONTINUOUS
 10
362.98421699999989
 20
204.53523999999999
 30
0.0
 40
0.5
 50
180.00003599999999
 51
269.99996299999992
  0
LINE
  5
A893
  8
DANMEN
  6
CONTINUOUS
 10
364.13421099999999
 20
206.8852399999999
 30
0.0
 11
364.13421099999999
 21
204.53523999999999
 31
0.0
  0
ARC
  5
A895
  8
DANMEN
  6
CONTINUOUS
 10
363.63421099999999
 20
204.53523999999999
 30
0.0
 40
0.5
 50
270.0000179999999
 51
359.99998099999988
  0
LINE
  5
A896
  8
DANMEN
  6
CONTINUOUS
 10
364.13421099999999
 20
206.8852399999999
 30
0.0
 11
370.484217
 21
206.8852399999999
 31
0.0
  0
LINE
  5
A89A
  8
DANMEN
  6
CONTINUOUS
 10
370.484217
 20
211.5352399999999
 30
0.0
 11
370.83422299999989
 21
211.5352399999999
 31
0.0
  0
LINE
  5
A89D
  8
SUNPO
  6
CONTINUOUS
 10
333.915322
 20
324.53523999999987
 30
0.0
 11
333.915322
 21
280.87896000000001
 31
0.0
  0
LINE
  5
A89E
  8
SUNPO
  6
BYBLOCK
 10
323.91532199999989
 20
324.53523999999987
 30
0.0
 11
323.91532199999989
 21
276.53523999999987
 31
0.0
  0
LINE
  5
A89F
  8
DANMEN
  6
CONTINUOUS
 10
205.5653219999999
 20
358.05029899999988
 30
0.0
 11
258.915322
 21
362.87849799999992
 31
0.0
  0
LINE
  5
A8A0
  8
DANMEN
  6
CONTINUOUS
 10
253.415322
 20
351.48523999999992
 30
0.0
 11
230.415322
 21
351.48523999999992
 31
0.0
  0
LINE
  5
A8A1
  8
DANMEN
  6
CONTINUOUS
 10
238.915322
 20
354.48523999999992
 30
0.0
 11
246.915322
 21
354.48523999999992
 31
0.0
  0
LINE
  5
A8A2
  8
DANMEN
  6
CONTINUOUS
 10
204.37005400000001
 20
359.57657899999992
 30
0.0
 11
258.915322
 21
364.53524099999998
 31
0.0
  0
LINE
  5
A8A3
  8
DANMEN
  6
CONTINUOUS
 10
203.915322
 20
359.07863300000002
 30
0.0
 11
203.915322
 21
325.03523999999999
 31
0.0
  0
LINE
  5
A8A4
  8
DANMEN
  6
CONTINUOUS
 10
224.165322
 20
347.53523999999987
 30
0.0
 11
224.165322
 21
326.59679299999988
 31
0.0
  0
LINE
  5
A8A5
  8
DANMEN
  6
CONTINUOUS
 10
221.665322
 20
347.53523999999987
 30
0.0
 11
221.665322
 21
326.59679299999988
 31
0.0
  0
LINE
  5
A8A6
  8
DANMEN
  6
CONTINUOUS
 10
205.5653219999999
 20
347.53523999999987
 30
0.0
 11
205.5653219999999
 21
325.03523999999999
 31
0.0
  0
LINE
  5
A8A7
  8
DANMEN
  6
CONTINUOUS
 10
203.915322
 20
325.03524499999997
 30
0.0
 11
203.915322
 21
272.03523999999987
 31
0.0
  0
LINE
  5
A8A8
  8
DANMEN
  6
CONTINUOUS
 10
205.56531599999991
 20
325.03523999999999
 30
0.0
 11
205.56531599999991
 21
272.03523999999987
 31
0.0
  0
LINE
  5
A8A9
  8
DANMEN
  6
CONTINUOUS
 10
204.415322
 20
324.53523999999987
 30
0.0
 11
205.06531599999991
 21
324.53523999999987
 31
0.0
  0
ARC
  5
A8AA
  8
DANMEN
  6
CONTINUOUS
 10
204.415322
 20
325.03523999999999
 30
0.0
 40
0.5
 50
180.0
 51
270.0
  0
ARC
  5
A8AC
  8
DANMEN
  6
CONTINUOUS
 10
205.06532200000001
 20
325.03523999999999
 30
0.0
 40
0.5
 50
270.0
 51
0.0
  0
ARC
  5
A8AF
  8
DANMEN
  6
CONTINUOUS
 10
223.27493399999989
 20
325.03523999999999
 30
0.0
 40
0.5
 50
270.0
 51
345.96375699999987
  0
LINE
  5
A8B0
  8
DANMEN
  6
CONTINUOUS
 10
222.55571
 20
324.53523999999987
 30
0.0
 11
223.27493399999989
 21
324.53523999999987
 31
0.0
  0
LINE
  5
A8B1
  8
DANMEN
  6
CONTINUOUS
 10
221.68025099999991
 20
326.475525
 30
0.0
 11
222.070639
 21
324.913972
 31
0.0
  0
ARC
  5
A8B2
  8
DANMEN
  6
CONTINUOUS
 10
222.165322
 20
326.59679299999988
 30
0.0
 40
0.5
 50
180.0
 51
194.03624300000001
  0
ARC
  5
A8B4
  8
DANMEN
  6
CONTINUOUS
 10
222.55571
 20
325.03523999999999
 30
0.0
 40
0.5
 50
194.03624300000001
 51
270.0
  0
LINE
  5
A8B7
  8
DANMEN
  6
CONTINUOUS
 10
223.76000499999989
 20
324.913972
 30
0.0
 11
224.15039299999989
 21
326.475525
 31
0.0
  0
ARC
  5
A8B8
  8
DANMEN
  6
CONTINUOUS
 10
223.665322
 20
326.59679299999988
 30
0.0
 40
0.5
 50
345.96375699999987
 51
0.0
  0
LINE
  5
A8BA
  8
DANMEN
  6
CONTINUOUS
 10
205.56531599999991
 20
347.53523999999987
 30
0.0
 11
221.665322
 21
347.53523999999987
 31
0.0
  0
LINE
  5
A8BB
  8
DANMEN
  6
CONTINUOUS
 10
205.56531599999991
 20
349.18523999999991
 30
0.0
 11
222.61532199999999
 21
349.18523999999991
 31
0.0
  0
LINE
  5
A8BC
  8
DANMEN
  6
CONTINUOUS
 10
205.5653219999999
 20
349.18523999999991
 30
0.0
 11
205.5653219999999
 21
358.05029899999988
 31
0.0
  0
ARC
  5
A8C0
  8
DANMEN
  6
CONTINUOUS
 10
204.415322
 20
359.07863300000002
 30
0.0
 40
0.5
 50
95.194429999999997
 51
180.0
  0
ARC
  5
A8C2
  8
DANMEN
  6
CONTINUOUS
 10
225.61532199999999
 20
351.56554599999998
 30
0.0
 40
2.0
 50
128.29347699999991
 51
180.0
  0
ARC
  5
A8C3
  8
DANMEN
  6
CONTINUOUS
 10
222.61532199999999
 20
350.18523999999991
 30
0.0
 40
1.0
 50
270.0
 51
0.0
  0
LINE
  5
A8C5
  8
DANMEN
  6
CONTINUOUS
 10
223.61532199999999
 20
351.56554599999998
 30
0.0
 11
223.61532199999999
 21
350.18523999999991
 31
0.0
  0
ARC
  5
A8C7
  8
DANMEN
  6
CONTINUOUS
 10
231.415322
 20
348.03523999999999
 30
0.0
 40
0.5
 50
270.0
 51
0.0
  0
LINE
  5
A8C8
  8
DANMEN
  6
CONTINUOUS
 10
237.915322
 20
353.13524000000001
 30
0.0
 11
228.3153219999999
 21
353.13524000000001
 31
0.0
  0
LINE
  5
A8C9
  8
DANMEN
  6
CONTINUOUS
 10
228.015322
 20
352.83524
 30
0.0
 11
228.015322
 21
352.57217200000002
 31
0.0
  0
LINE
  5
A8CA
  8
DANMEN
  6
CONTINUOUS
 10
225.81532200000001
 20
352.83524
 30
0.0
 11
225.81532200000001
 21
352.57217200000002
 31
0.0
  0
LINE
  5
A8CB
  8
DANMEN
  6
CONTINUOUS
 10
224.165322
 20
347.53523999999987
 30
0.0
 11
231.415322
 21
347.53523999999987
 31
0.0
  0
ARC
  5
A8CC
  8
DANMEN
  6
CONTINUOUS
 10
227.71532199999999
 20
350.23523999999992
 30
0.0
 40
1.0
 50
270.0
 51
0.0
  0
LINE
  5
A8D0
  8
DANMEN
  6
CONTINUOUS
 10
227.71532199999999
 20
349.23523999999992
 30
0.0
 11
226.11532199999999
 21
349.23523999999992
 31
0.0
  0
ARC
  5
A8D1
  8
DANMEN
  6
CONTINUOUS
 10
226.11532199999999
 20
350.23523999999992
 30
0.0
 40
1.0
 50
180.0
 51
270.0
  0
LINE
  5
A8D2
  8
DANMEN
  6
CONTINUOUS
 10
225.11532199999999
 20
351.48130099999992
 30
0.0
 11
225.11532199999999
 21
350.23523999999992
 31
0.0
  0
ARC
  5
A8D3
  8
DANMEN
  6
CONTINUOUS
 10
225.61532199999999
 20
352.57217200000002
 30
0.0
 40
0.2
 50
294.62431800000002
 51
0.0
  0
ARC
  5
A8D4
  8
DANMEN
  6
CONTINUOUS
 10
226.11532199999999
 20
351.48130099999992
 30
0.0
 40
1.0
 50
114.6243179999999
 51
180.0
  0
LINE
  5
A8D5
  8
DANMEN
  6
CONTINUOUS
 10
230.415322
 20
351.48523999999992
 30
0.0
 11
230.415322
 21
348.33524
 31
0.0
  0
LINE
  5
A8D6
  8
DANMEN
  6
CONTINUOUS
 10
231.915322
 20
348.33524
 30
0.0
 11
231.915322
 21
348.03523999999999
 31
0.0
  0
LINE
  5
A8D7
  8
DANMEN
  6
CONTINUOUS
 10
230.415322
 20
348.33524
 30
0.0
 11
231.915322
 21
348.33524
 31
0.0
  0
LINE
  5
A8DC
  8
DANMEN
  6
CONTINUOUS
 10
228.7153219999999
 20
351.48130099999992
 30
0.0
 11
228.7153219999999
 21
350.23523999999992
 31
0.0
  0
ARC
  5
A8DD
  8
DANMEN
  6
CONTINUOUS
 10
227.71532199999999
 20
351.48130099999992
 30
0.0
 40
1.0
 50
0.0
 51
65.375681999999983
  0
ARC
  5
A8DE
  8
DANMEN
  6
CONTINUOUS
 10
228.21532199999999
 20
352.57217200000002
 30
0.0
 40
0.2
 50
180.0
 51
245.3756819999999
  0
ARC
  5
A8DF
  8
DANMEN
  6
CONTINUOUS
 10
225.515322
 20
352.83524
 30
0.0
 40
0.3
 50
0.0
 51
90.0
  0
LINE
  5
A8E0
  8
DANMEN
  6
CONTINUOUS
 10
225.515322
 20
353.13524000000001
 30
0.0
 11
224.37594300000001
 21
353.13524000000001
 31
0.0
  0
ARC
  5
A8E1
  8
DANMEN
  6
CONTINUOUS
 10
228.3153219999999
 20
352.83524
 30
0.0
 40
0.3
 50
90.0
 51
180.0
  0
LINE
  5
A8E2
  8
DANMEN
  6
CONTINUOUS
 10
238.915322
 20
354.13524000000001
 30
0.0
 11
238.915322
 21
354.48523999999992
 31
0.0
  0
ARC
  5
A8E4
  8
DANMEN
  6
CONTINUOUS
 10
237.915322
 20
354.13524000000001
 30
0.0
 40
1.0
 50
270.0
 51
0.0
  0
LINE
  5
A8E6
  8
DANMEN
  6
CONTINUOUS
 10
299.415322
 20
345.03524299999998
 30
0.0
 11
299.415322
 21
329.53524599999992
 31
0.0
  0
LINE
  5
A8E7
  8
DANMEN
  6
CONTINUOUS
 10
303.915322
 20
374.53524499999997
 30
0.0
 11
303.915322
 21
308.052142
 31
0.0
  0
LINE
  5
A8E8
  8
DANMEN
  6
CONTINUOUS
 10
260.56532199999998
 20
350.53523999999999
 30
0.0
 11
260.56532199999998
 21
329.53523999999999
 31
0.0
  0
LINE
  5
A8E9
  8
DANMEN
  6
CONTINUOUS
 10
258.915322
 20
347.53523999999987
 30
0.0
 11
258.915322
 21
332.53523999999987
 31
0.0
  0
LINE
  5
A8EA
  8
DANMEN
  6
CONTINUOUS
 10
303.915322
 20
364.03523999999987
 30
0.0
 11
303.915322
 21
325.03523999999999
 31
0.0
  0
LINE
  5
A8EB
  8
DANMEN
  6
CONTINUOUS
 10
302.26532200000003
 20
350.53523999999999
 30
0.0
 11
302.26532200000003
 21
326.18523999999991
 31
0.0
  0
LINE
  5
A8EC
  8
DANMEN
  6
CONTINUOUS
 10
307.06532599999991
 20
250.53523899999999
 30
0.0
 11
304.5153259999999
 21
250.53523899999999
 31
0.0
  0
LINE
  5
A8ED
  8
DANMEN
  6
CONTINUOUS
 10
307.06532599999991
 20
251.53523899999999
 30
0.0
 11
304.5153259999999
 21
251.53523899999999
 31
0.0
  0
LINE
  5
A8EE
  8
DANMEN
  6
CONTINUOUS
 10
308.215326
 20
264.53523899999988
 30
0.0
 11
304.5153259999999
 21
264.53523899999988
 31
0.0
  0
LINE
  5
A8EF
  8
DANMEN
  6
CONTINUOUS
 10
307.06532599999991
 20
260.53523899999988
 30
0.0
 11
305.015311
 21
260.53523899999988
 31
0.0
  0
LINE
  5
A8F0
  8
DANMEN
  6
CONTINUOUS
 10
302.91532299999989
 20
249.03523899999999
 30
0.0
 11
313.41532299999989
 21
249.03523899999999
 31
0.0
  0
LINE
  5
A8F1
  8
DANMEN
  6
CONTINUOUS
 10
299.41531999999989
 20
309.03524099999998
 30
0.0
 11
310.91532000000001
 21
302.03524099999998
 31
0.0
  0
LINE
  5
A8F2
  8
DANMEN
  6
CONTINUOUS
 10
301.66754400000002
 20
309.42035399999997
 30
0.0
 11
311.23526699999991
 21
303.59652299999988
 31
0.0
  0
LINE
  5
A8F3
  8
DANMEN
  6
CONTINUOUS
 10
308.21532200000001
 20
276.53523999999987
 30
0.0
 11
304.51532200000003
 21
276.53523999999987
 31
0.0
  0
LINE
  5
A8F4
  8
DANMEN
  6
CONTINUOUS
 10
305.01530700000001
 20
280.53523999999987
 30
0.0
 11
307.06532199999998
 21
280.53523999999987
 31
0.0
  0
LINE
  5
A8F5
  8
DANMEN
  6
CONTINUOUS
 10
299.415322
 20
309.03523999999987
 30
0.0
 11
310.67529300000001
 21
302.18134300000003
 31
0.0
  0
LINE
  5
A8F6
  8
DANMEN
  6
CONTINUOUS
 10
297.06335000000001
 20
308.53523999999999
 30
0.0
 11
307.06532199999998
 21
302.44708199999991
 31
0.0
  0
LINE
  5
A8F7
  8
DANMEN
  6
CONTINUOUS
 10
307.06532199999998
 20
289.53523999999987
 30
0.0
 11
304.51532200000003
 21
289.53523999999987
 31
0.0
  0
LINE
  5
A8F8
  8
DANMEN
  6
CONTINUOUS
 10
307.06532199999998
 20
290.53523999999987
 30
0.0
 11
304.51532200000003
 21
290.53523999999987
 31
0.0
  0
LINE
  5
A8F9
  8
DANMEN
  6
CONTINUOUS
 10
258.91530399999988
 20
277.03523300000001
 30
0.0
 11
258.91530399999988
 21
300.03523300000001
 31
0.0
  0
LINE
  5
A8FA
  8
DANMEN
  6
CONTINUOUS
 10
260.86530399999992
 20
278.48523299999999
 30
0.0
 11
260.86530399999992
 21
289.53523300000001
 31
0.0
  0
LINE
  5
A8FB
  8
DANMEN
  6
CONTINUOUS
 10
260.86530399999992
 20
262.58523600000001
 30
0.0
 11
260.86530399999992
 21
251.535236
 31
0.0
  0
LINE
  5
A8FC
  8
DANMEN
  6
CONTINUOUS
 10
260.86530399999992
 20
251.535236
 30
0.0
 11
265.51530400000001
 21
251.535236
 31
0.0
  0
LINE
  5
A8FD
  8
DANMEN
  6
CONTINUOUS
 10
260.86530399999992
 20
250.53523599999991
 30
0.0
 11
265.51530400000001
 21
250.53523599999991
 31
0.0
  0
LINE
  5
A8FE
  8
DANMEN
  6
CONTINUOUS
 10
260.86530399999992
 20
250.53523599999991
 30
0.0
 11
260.86530399999992
 21
242.8352359999999
 31
0.0
  0
ARC
  5
A902
  8
DANMEN
  6
CONTINUOUS
 10
265.51530400000001
 20
251.035236
 30
0.0
 40
0.5
 50
270.0
 51
90.0
  0
LINE
  5
A905
  8
DANMEN
  6
CONTINUOUS
 10
259.41530399999999
 20
264.53523599999988
 30
0.0
 11
265.51530400000001
 21
264.53523599999988
 31
0.0
  0
LINE
  5
A906
  8
DANMEN
  6
CONTINUOUS
 10
260.86530399999992
 20
262.58523600000001
 30
0.0
 11
264.81530400000003
 21
262.58523600000001
 31
0.0
  0
ARC
  5
A907
  8
DANMEN
  6
CONTINUOUS
 10
265.31530400000003
 20
258.035236
 30
0.0
 40
0.5
 50
180.0
 51
270.0
  0
ARC
  5
A908
  8
DANMEN
  6
CONTINUOUS
 10
259.41530399999999
 20
264.035236
 30
0.0
 40
0.5
 50
90.0
 51
180.0
  0
LINE
  5
A90B
  8
DANMEN
  6
CONTINUOUS
 10
266.01530400000001
 20
264.035236
 30
0.0
 11
266.01530400000001
 21
257.535236
 31
0.0
  0
LINE
  5
A90C
  8
DANMEN
  6
CONTINUOUS
 10
264.81530400000003
 20
262.58523600000001
 30
0.0
 11
264.81530400000003
 21
258.035236
 31
0.0
  0
LINE
  5
A90D
  8
DANMEN
  6
CONTINUOUS
 10
265.31530400000003
 20
257.535236
 30
0.0
 11
266.01530400000001
 21
257.535236
 31
0.0
  0
ARC
  5
A910
  8
DANMEN
  6
CONTINUOUS
 10
265.51530400000001
 20
264.035236
 30
0.0
 40
0.5
 50
0.0
 51
90.0
  0
LINE
  5
A914
  8
DANMEN
  6
CONTINUOUS
 10
266.01530400000001
 20
277.03523300000001
 30
0.0
 11
266.01530400000001
 21
283.53523300000001
 31
0.0
  0
LINE
  5
A915
  8
DANMEN
  6
CONTINUOUS
 10
259.41530399999999
 20
276.53523300000001
 30
0.0
 11
265.51530400000001
 21
276.53523300000001
 31
0.0
  0
ARC
  5
A918
  8
DANMEN
  6
CONTINUOUS
 10
259.41530399999999
 20
277.03523300000001
 30
0.0
 40
0.5
 50
180.0
 51
270.0
  0
ARC
  5
A91A
  8
DANMEN
  6
CONTINUOUS
 10
265.51530400000001
 20
277.03523300000001
 30
0.0
 40
0.5
 50
270.0
 51
0.0
  0
LINE
  5
A91D
  8
DANMEN
  6
CONTINUOUS
 10
260.86530399999992
 20
278.48523299999999
 30
0.0
 11
264.81530400000003
 21
278.48523299999999
 31
0.0
  0
ARC
  5
A91E
  8
DANMEN
  6
CONTINUOUS
 10
265.31530400000003
 20
283.03523300000001
 30
0.0
 40
0.5
 50
90.0
 51
180.0
  0
LINE
  5
A920
  8
DANMEN
  6
CONTINUOUS
 10
264.81530400000003
 20
278.48523299999999
 30
0.0
 11
264.81530400000003
 21
283.03523300000001
 31
0.0
  0
LINE
  5
A922
  8
DANMEN
  6
CONTINUOUS
 10
265.31530400000003
 20
283.53523300000001
 30
0.0
 11
266.01530400000001
 21
283.53523300000001
 31
0.0
  0
ARC
  5
A925
  8
DANMEN
  6
CONTINUOUS
 10
302.91532299999989
 20
247.03523899999999
 30
0.0
 40
2.0
 50
89.999981999999974
 51
180.0000189999999
  0
ARC
  5
A929
  8
DANMEN
  6
CONTINUOUS
 10
304.5153259999999
 20
251.03523899999999
 30
0.0
 40
0.5
 50
90.0
 51
270.0
  0
LINE
  5
A92A
  8
DANMEN
  6
CONTINUOUS
 10
304.0153259999999
 20
264.03523899999988
 30
0.0
 11
304.0153259999999
 21
257.53523899999988
 31
0.0
  0
LINE
  5
A92B
  8
DANMEN
  6
CONTINUOUS
 10
305.015311
 20
260.53523899999988
 30
0.0
 11
305.015311
 21
258.03523899999988
 31
0.0
  0
LINE
  5
A92D
  8
DANMEN
  6
CONTINUOUS
 10
304.515311
 20
257.53523899999988
 30
0.0
 11
304.0153259999999
 21
257.53523899999988
 31
0.0
  0
ARC
  5
A92E
  8
DANMEN
  6
CONTINUOUS
 10
304.515311
 20
258.03523899999988
 30
0.0
 40
0.5
 50
270.0
 51
0.0
  0
ARC
  5
A931
  8
DANMEN
  6
CONTINUOUS
 10
304.5153259999999
 20
264.03523899999988
 30
0.0
 40
0.5
 50
90.000018999999995
 51
180.00003699999999
  0
LINE
  5
A934
  8
DANMEN
  6
CONTINUOUS
 10
304.01532200000003
 20
277.03523999999987
 30
0.0
 11
304.01532200000003
 21
283.53523999999999
 31
0.0
  0
ARC
  5
A935
  8
DANMEN
  6
CONTINUOUS
 10
304.51532200000003
 20
277.03523999999987
 30
0.0
 40
0.5
 50
179.99996299999989
 51
269.99998099999999
  0
LINE
  5
A937
  8
DANMEN
  6
CONTINUOUS
 10
305.01530700000001
 20
280.53523999999987
 30
0.0
 11
305.01530700000001
 21
283.03523999999987
 31
0.0
  0
ARC
  5
A93A
  8
DANMEN
  6
CONTINUOUS
 10
304.51530700000001
 20
283.03523999999987
 30
0.0
 40
0.5
 50
0.0
 51
90.0
  0
LINE
  5
A93B
  8
DANMEN
  6
CONTINUOUS
 10
304.51530700000001
 20
283.53523999999999
 30
0.0
 11
304.01532200000003
 21
283.53523999999999
 31
0.0
  0
LINE
  5
A93D
  8
DANMEN
  6
CONTINUOUS
 10
297.06335000000001
 20
308.53523999999999
 30
0.0
 11
269.71532499999989
 21
308.53523999999999
 31
0.0
  0
LINE
  5
A93E
  8
DANMEN
  6
CONTINUOUS
 10
286.61532199999999
 20
310.18523999999991
 30
0.0
 11
270.06532499999992
 21
310.18523999999991
 31
0.0
  0
LINE
  5
A93F
  8
DANMEN
  6
DASHED
 10
259.41532199999989
 20
323.53523999999999
 30
0.0
 11
301.36532199999999
 21
323.53523999999999
 31
0.0
  0
LINE
  5
A940
  8
DANMEN
  6
DASHED
 10
262.76532200000003
 20
324.53523999999987
 30
0.0
 11
298.01532200000003
 21
324.53523999999987
 31
0.0
  0
LINE
  5
A941
  8
DANMEN
  6
CONTINUOUS
 10
260.56532199999998
 20
311.18523999999991
 30
0.0
 11
260.56532199999998
 21
322.88524299999989
 31
0.0
  0
LINE
  5
A942
  8
DANMEN
  6
CONTINUOUS
 10
258.915322
 20
324.03524299999998
 30
0.0
 11
258.915322
 21
301.03523999999987
 31
0.0
  0
ARC
  5
A943
  8
DANMEN
  6
CONTINUOUS
 10
259.41530399999999
 20
300.03523300000001
 30
0.0
 40
0.5
 50
90.0
 51
180.0
  0
LINE
  5
A944
  8
DANMEN
  6
CONTINUOUS
 10
261.91530399999999
 20
300.23523299999988
 30
0.0
 11
261.91530399999999
 21
302.03523300000001
 31
0.0
  0
LINE
  5
A945
  8
DANMEN
  6
CONTINUOUS
 10
260.86530399999992
 20
300.23523299999988
 30
0.0
 11
260.86530399999992
 21
300.53523300000001
 31
0.0
  0
LINE
  5
A946
  8
DANMEN
  6
CONTINUOUS
 10
263.21530399999989
 20
299.73523299999999
 30
0.0
 11
263.21530399999989
 21
302.51639699999998
 31
0.0
  0
LINE
  5
A947
  8
DANMEN
  6
CONTINUOUS
 10
260.86530399999992
 20
289.53523300000001
 30
0.0
 11
265.51530400000001
 21
289.53523300000001
 31
0.0
  0
LINE
  5
A948
  8
DANMEN
  6
CONTINUOUS
 10
260.86530399999992
 20
290.53523299999989
 30
0.0
 11
265.51530400000001
 21
290.53523299999989
 31
0.0
  0
LINE
  5
A949
  8
DANMEN
  6
CONTINUOUS
 10
260.86530399999992
 20
290.53523299999989
 30
0.0
 11
260.86530399999992
 21
298.23523299999988
 31
0.0
  0
LINE
  5
A94C
  8
DANMEN
  6
CONTINUOUS
 10
260.86530399999992
 20
300.23523299999988
 30
0.0
 11
261.91530399999999
 21
300.23523299999988
 31
0.0
  0
LINE
  5
A94F
  8
DANMEN
  6
CONTINUOUS
 10
261.36530399999992
 20
298.73523299999999
 30
0.0
 11
262.215304
 21
298.73523299999999
 31
0.0
  0
ARC
  5
A950
  8
DANMEN
  6
CONTINUOUS
 10
262.215304
 20
299.73523299999999
 30
0.0
 40
1.0
 50
270.0
 51
0.0
  0
ARC
  5
A952
  8
DANMEN
  6
CONTINUOUS
 10
261.36530399999992
 20
298.23523299999988
 30
0.0
 40
0.5
 50
90.0
 51
180.0
  0
ARC
  5
A956
  8
DANMEN
  6
CONTINUOUS
 10
265.51530400000001
 20
290.03523300000001
 30
0.0
 40
0.5
 50
270.0
 51
90.0
  0
LINE
  5
A959
  8
DANMEN
  6
CONTINUOUS
 10
269.06532499999992
 20
311.18523999999991
 30
0.0
 11
260.56532199999998
 21
311.18523999999991
 31
0.0
  0
LINE
  5
A95A
  8
DANMEN
  6
CONTINUOUS
 10
268.415325
 20
309.53523999999987
 30
0.0
 11
260.56531899999987
 21
309.53523999999987
 31
0.0
  0
LINE
  5
A95B
  8
DANMEN
  6
CONTINUOUS
 10
261.11530399999998
 20
302.73523299999988
 30
0.0
 11
267.66278099999988
 21
306.83523300000002
 31
0.0
  0
LINE
  5
A95C
  8
DANMEN
  6
CONTINUOUS
 10
263.21530399999989
 20
302.51639699999998
 30
0.0
 11
268.28066799999999
 21
305.6883049999999
 31
0.0
  0
LINE
  5
A95D
  8
DANMEN
  6
CONTINUOUS
 10
260.56531899999987
 20
302.03523999999999
 30
0.0
 11
260.56531899999987
 21
309.53523999999987
 31
0.0
  0
LINE
  5
A95E
  8
DANMEN
  6
CONTINUOUS
 10
260.56531899999987
 20
302.03523999999999
 30
0.0
 11
261.61531899999989
 21
302.03523999999999
 31
0.0
  0
LINE
  5
A95F
  8
DANMEN
  6
CONTINUOUS
 10
261.10630200000003
 20
300.53523999999999
 30
0.0
 11
259.41532199999989
 21
300.53523999999999
 31
0.0
  0
LINE
  5
A960
  8
DANMEN
  6
CONTINUOUS
 10
259.41530399999999
 20
300.53523300000001
 30
0.0
 11
260.86530399999992
 21
300.53523300000001
 31
0.0
  0
ARC
  5
A962
  8
DANMEN
  6
CONTINUOUS
 10
259.41532199999989
 20
301.03523999999987
 30
0.0
 40
0.5
 50
180.0
 51
270.0
  0
ARC
  5
A966
  8
DANMEN
  6
CONTINUOUS
 10
261.10630200000003
 20
301.03523999999987
 30
0.0
 40
0.5
 50
270.0
 51
333.43494900000002
  0
LINE
  5
A967
  8
DANMEN
  6
CONTINUOUS
 10
261.91531900000001
 20
301.53523999999987
 30
0.0
 11
261.55351599999989
 21
300.81163299999997
 31
0.0
  0
ARC
  5
A96B
  8
DANMEN
  6
CONTINUOUS
 10
261.61531899999989
 20
301.73523999999998
 30
0.0
 40
0.3
 50
0.0
 51
90.0
  0
LINE
  5
A96C
  8
DANMEN
  6
CONTINUOUS
 10
261.91531900000001
 20
301.73523999999998
 30
0.0
 11
261.91531900000001
 21
301.53523999999987
 31
0.0
  0
LINE
  5
A96F
  8
DANMEN
  6
CONTINUOUS
 10
261.11530399999998
 20
302.23523299999988
 30
0.0
 11
261.91530399999999
 21
302.03523300000001
 31
0.0
  0
LINE
  5
A970
  8
DANMEN
  6
CONTINUOUS
 10
261.11530399999998
 20
302.23523299999988
 30
0.0
 11
261.11530399999998
 21
302.73523299999988
 31
0.0
  0
LINE
  5
A978
  8
DANMEN
  6
CONTINUOUS
 10
269.71532499999989
 20
308.53523999999999
 30
0.0
 11
269.71532499999989
 21
302.53523999999999
 31
0.0
  0
LINE
  5
A979
  8
DANMEN
  6
CONTINUOUS
 10
268.415325
 20
304.53523999999999
 30
0.0
 11
268.415325
 21
309.53523999999987
 31
0.0
  0
LINE
  5
A97A
  8
DANMEN
  6
CONTINUOUS
 10
268.51530400000001
 20
306.112076
 30
0.0
 11
268.51530400000001
 21
306.33523300000002
 31
0.0
  0
ARC
  5
A97B
  8
DANMEN
  6
CONTINUOUS
 10
269.22522700000002
 20
303.03523999999987
 30
0.0
 40
0.5
 50
191.309932
 51
270.0
  0
LINE
  5
A97D
  8
DANMEN
  6
CONTINUOUS
 10
268.415325
 20
304.53523999999999
 30
0.0
 11
268.734937
 21
302.93718200000001
 31
0.0
  0
ARC
  5
A97F
  8
DANMEN
  6
CONTINUOUS
 10
268.0153039999999
 20
306.112076
 30
0.0
 40
0.5
 50
302.05461000000003
 51
0.0
  0
LINE
  5
A982
  8
DANMEN
  6
CONTINUOUS
 10
269.22522700000002
 20
302.53523999999999
 30
0.0
 11
269.71532499999989
 21
302.53523999999999
 31
0.0
  0
LINE
  5
A984
  8
DANMEN
  6
CONTINUOUS
 10
267.66278099999988
 20
306.83523300000002
 30
0.0
 11
268.0153039999999
 21
306.83523300000002
 31
0.0
  0
ARC
  5
A985
  8
DANMEN
  6
CONTINUOUS
 10
268.0153039999999
 20
306.33523300000002
 30
0.0
 40
0.5
 50
0.0
 51
90.0
  0
ARC
  5
A989
  8
DANMEN
  6
CONTINUOUS
 10
269.06532499999992
 20
310.18523999999991
 30
0.0
 40
1.0
 50
0.0
 51
90.0
  0
LINE
  5
A98C
  8
DANMEN
  6
CONTINUOUS
 10
252.415322
 20
324.53523999999987
 30
0.0
 11
260.76532200000003
 21
324.53523999999987
 31
0.0
  0
LINE
  5
A98D
  8
DANMEN
  6
CONTINUOUS
 10
252.415322
 20
332.53523999999987
 30
0.0
 11
258.915322
 21
332.53523999999987
 31
0.0
  0
LINE
  5
A98E
  8
DANMEN
  6
CONTINUOUS
 10
252.71532500000001
 20
325.53523999999999
 30
0.0
 11
258.915322
 21
325.53523999999999
 31
0.0
  0
LINE
  5
A98F
  8
DANMEN
  6
CONTINUOUS
 10
252.71532500000001
 20
331.73523999999992
 30
0.0
 11
258.915322
 21
331.73523999999992
 31
0.0
  0
LINE
  5
A990
  8
DANMEN
  6
CONTINUOUS
 10
251.11532199999999
 20
331.93523999999991
 30
0.0
 11
251.11532199999999
 21
324.83523999999989
 31
0.0
  0
LINE
  5
A991
  8
DANMEN
  6
CONTINUOUS
 10
253.915322
 20
330.03523999999987
 30
0.0
 11
253.11532199999999
 21
329.23523999999992
 31
0.0
  0
LINE
  5
A992
  8
DANMEN
  6
CONTINUOUS
 10
250.06149999999991
 20
332.41968100000003
 30
0.0
 11
248.934022
 21
328.92538999999988
 31
0.0
  0
LINE
  5
A993
  8
DANMEN
  6
CONTINUOUS
 10
250.4977559999999
 20
331.93523999999991
 30
0.0
 11
249.515322
 21
328.75236599999999
 31
0.0
  0
LINE
  5
A994
  8
DANMEN
  6
CONTINUOUS
 10
252.415322
 20
326.73523699999993
 30
0.0
 11
252.71532500000001
 21
326.73523699999993
 31
0.0
  0
LINE
  5
A995
  8
DANMEN
  6
CONTINUOUS
 10
251.915322
 20
326.73523999999998
 30
0.0
 11
252.915322
 21
326.73523999999998
 31
0.0
  0
ARC
  5
A997
  8
DANMEN
  6
CONTINUOUS
 10
252.415322
 20
325.03523999999999
 30
0.0
 40
0.5
 50
179.99998099999999
 51
270.0000179999999
  0
ARC
  5
A998
  8
DANMEN
  6
CONTINUOUS
 10
252.415322
 20
326.23523699999993
 30
0.0
 40
0.5
 50
89.999999000000003
 51
179.99998099999999
  0
LINE
  5
A999
  8
DANMEN
  6
CONTINUOUS
 10
251.915322
 20
325.03523999999999
 30
0.0
 11
251.915322
 21
326.23523699999993
 31
0.0
  0
LINE
  5
A99D
  8
DANMEN
  6
CONTINUOUS
 10
251.915322
 20
326.73523999999998
 30
0.0
 11
251.915322
 21
324.23523999999992
 31
0.0
  0
LINE
  5
A99F
  8
DANMEN
  6
CONTINUOUS
 10
250.24279999999999
 20
324.23523999999992
 30
0.0
 11
251.915322
 21
324.23523999999992
 31
0.0
  0
LINE
  5
A9A3
  8
DANMEN
  6
CONTINUOUS
 10
248.915322
 20
328.84094900000002
 30
0.0
 11
248.915322
 21
327.929531
 31
0.0
  0
LINE
  5
A9A4
  8
DANMEN
  6
CONTINUOUS
 10
248.934022
 20
327.84508999999991
 30
0.0
 11
250.06149999999991
 21
324.35079899999988
 31
0.0
  0
ARC
  5
A9A5
  8
DANMEN
  6
CONTINUOUS
 10
250.24279999999999
 20
324.43523999999991
 30
0.0
 40
0.2
 50
204.97390999999999
 51
270.0
  0
ARC
  5
A9A7
  8
DANMEN
  6
CONTINUOUS
 10
249.11532199999999
 20
328.84094900000002
 30
0.0
 40
0.2
 50
155.0260899999999
 51
180.0
  0
ARC
  5
A9A9
  8
DANMEN
  6
CONTINUOUS
 10
249.11532199999999
 20
327.929531
 30
0.0
 40
0.2
 50
180.0
 51
204.97390999999999
  0
LINE
  5
A9AB
  8
DANMEN
  6
CONTINUOUS
 10
249.515322
 20
328.75236599999999
 30
0.0
 11
249.515322
 21
328.01811299999991
 31
0.0
  0
LINE
  5
A9AC
  8
DANMEN
  6
CONTINUOUS
 10
249.515322
 20
328.01811299999991
 30
0.0
 11
250.4977559999999
 21
324.83523999999989
 31
0.0
  0
LINE
  5
A9AD
  8
DANMEN
  6
CONTINUOUS
 10
250.4977559999999
 20
324.83523999999989
 30
0.0
 11
251.11532199999999
 21
324.83523999999989
 31
0.0
  0
LINE
  5
A9B4
  8
DANMEN
  6
CONTINUOUS
 10
252.71532500000001
 20
325.53523999999999
 30
0.0
 11
252.71532500000001
 21
326.73523699999993
 31
0.0
  0
LINE
  5
A9B5
  8
DANMEN
  6
CONTINUOUS
 10
253.11532199999999
 20
325.53523999999999
 30
0.0
 11
253.7153219999999
 21
325.53523999999999
 31
0.0
  0
ARC
  5
A9B7
  8
DANMEN
  6
CONTINUOUS
 10
253.7153219999999
 20
325.73523999999992
 30
0.0
 40
0.2
 50
270.0000179999999
 51
0.0
  0
ARC
  5
A9B9
  8
DANMEN
  6
CONTINUOUS
 10
253.11532199999999
 20
325.73523999999992
 30
0.0
 40
0.2
 50
180.0000189999999
 51
270.000001
  0
LINE
  5
A9BB
  8
DANMEN
  6
CONTINUOUS
 10
253.915322
 20
326.73523999999998
 30
0.0
 11
253.915322
 21
325.73523999999992
 31
0.0
  0
LINE
  5
A9BD
  8
DANMEN
  6
CONTINUOUS
 10
253.11532199999999
 20
327.53523999999999
 30
0.0
 11
253.915322
 21
326.73523999999998
 31
0.0
  0
LINE
  5
A9BE
  8
DANMEN
  6
CONTINUOUS
 10
252.915322
 20
326.73523999999998
 30
0.0
 11
252.915322
 21
325.73523999999992
 31
0.0
  0
LINE
  5
A9C1
  8
DANMEN
  6
CONTINUOUS
 10
253.11532199999999
 20
329.23523999999992
 30
0.0
 11
253.11532199999999
 21
327.53523999999999
 31
0.0
  0
LINE
  5
A9C4
  8
DANMEN
  6
CONTINUOUS
 10
252.415322
 20
330.33524299999988
 30
0.0
 11
252.71532500000001
 21
330.33524299999988
 31
0.0
  0
LINE
  5
A9C5
  8
DANMEN
  6
CONTINUOUS
 10
251.915322
 20
330.03523999999987
 30
0.0
 11
252.915322
 21
330.03523999999987
 31
0.0
  0
ARC
  5
A9C8
  8
DANMEN
  6
CONTINUOUS
 10
252.415322
 20
330.83524299999988
 30
0.0
 40
0.5
 50
179.99998099999999
 51
270.0000179999999
  0
ARC
  5
A9C9
  8
DANMEN
  6
CONTINUOUS
 10
252.415322
 20
332.03523999999987
 30
0.0
 40
0.5
 50
89.999999000000003
 51
179.99998099999999
  0
LINE
  5
A9CA
  8
DANMEN
  6
CONTINUOUS
 10
251.915322
 20
330.83524299999988
 30
0.0
 11
251.915322
 21
332.03523999999987
 31
0.0
  0
LINE
  5
A9CB
  8
DANMEN
  6
CONTINUOUS
 10
250.24279999999999
 20
332.53523999999987
 30
0.0
 11
251.915322
 21
332.53523999999987
 31
0.0
  0
LINE
  5
A9CC
  8
DANMEN
  6
CONTINUOUS
 10
251.915322
 20
332.53523999999987
 30
0.0
 11
251.915322
 21
330.03523999999987
 31
0.0
  0
ARC
  5
A9CF
  8
DANMEN
  6
CONTINUOUS
 10
250.24279999999999
 20
332.33524
 30
0.0
 40
0.2
 50
90.0
 51
155.0260899999999
  0
LINE
  5
A9D1
  8
DANMEN
  6
CONTINUOUS
 10
250.4977559999999
 20
331.93523999999991
 30
0.0
 11
251.11532199999999
 21
331.93523999999991
 31
0.0
  0
LINE
  5
A9D5
  8
DANMEN
  6
CONTINUOUS
 10
252.71532500000001
 20
330.33524299999988
 30
0.0
 11
252.71532500000001
 21
331.73523999999992
 31
0.0
  0
LINE
  5
A9D6
  8
DANMEN
  6
CONTINUOUS
 10
253.915322
 20
331.03523999999987
 30
0.0
 11
253.915322
 21
330.03523999999987
 31
0.0
  0
LINE
  5
A9D7
  8
DANMEN
  6
CONTINUOUS
 10
253.11532199999999
 20
331.23523999999992
 30
0.0
 11
253.7153219999999
 21
331.23523999999992
 31
0.0
  0
LINE
  5
A9D8
  8
DANMEN
  6
CONTINUOUS
 10
252.915322
 20
331.03523999999987
 30
0.0
 11
252.915322
 21
330.03523999999987
 31
0.0
  0
ARC
  5
A9DA
  8
DANMEN
  6
CONTINUOUS
 10
253.7153219999999
 20
331.03523999999987
 30
0.0
 40
0.2
 50
0.0
 51
89.999981999999974
  0
ARC
  5
A9DC
  8
DANMEN
  6
CONTINUOUS
 10
253.11532199999999
 20
331.03523999999987
 30
0.0
 40
0.2
 50
89.999981999999974
 51
180.0000189999999
  0
ARC
  5
A9DF
  8
DANMEN
  6
CONTINUOUS
 10
261.26532200000003
 20
324.385243
 30
0.0
 40
1.5
 50
270.0
 51
0.0
  0
ARC
  5
A9E0
  8
DANMEN
  6
DASHED
 10
259.41532199999989
 20
324.03523999999987
 30
0.0
 40
0.5
 50
180.0
 51
270.0
  0
LINE
  5
A9E1
  8
DANMEN
  6
CONTINUOUS
 10
260.56532199999998
 20
322.88524299999989
 30
0.0
 11
261.26532200000003
 21
322.88524299999989
 31
0.0
  0
LINE
  5
A9E5
  8
DANMEN
  6
CONTINUOUS
 10
261.26532200000003
 20
329.53523999999999
 30
0.0
 11
261.26532200000003
 21
325.03523999999999
 31
0.0
  0
LINE
  5
A9E6
  8
DANMEN
  6
CONTINUOUS
 10
258.915322
 20
331.73523999999992
 30
0.0
 11
258.915322
 21
325.53523999999999
 31
0.0
  0
ARC
  5
A9E7
  8
DANMEN
  6
CONTINUOUS
 10
262.26532200000003
 20
329.03524299999998
 30
0.0
 40
0.5
 50
0.0
 51
90.0
  0
ARC
  5
A9E8
  8
DANMEN
  6
CONTINUOUS
 10
261.76532200000003
 20
329.03524299999998
 30
0.0
 40
0.5
 50
90.0
 51
180.0
  0
LINE
  5
A9E9
  8
DANMEN
  6
DASHED
 10
261.26531299999988
 20
329.13614100000001
 30
0.0
 11
260.67893599999991
 21
329.601066
 31
0.0
  0
LINE
  5
A9EA
  8
DANMEN
  6
DASHED
 10
262.26532200000003
 20
325.03523999999999
 30
0.0
 11
262.26532200000003
 21
330.936172
 31
0.0
  0
LINE
  5
A9EB
  8
DANMEN
  6
CONTINUOUS
 10
259.41532199999989
 20
324.53524299999998
 30
0.0
 11
261.26532200000003
 21
324.53524299999998
 31
0.0
  0
LINE
  5
A9EC
  8
DANMEN
  6
DASHED
 10
259.41532199999989
 20
324.53523999999987
 30
0.0
 11
261.26532200000003
 21
324.53523999999987
 31
0.0
  0
ARC
  5
A9EE
  8
DANMEN
  6
CONTINUOUS
 10
259.41532199999989
 20
324.03524299999998
 30
0.0
 40
0.5
 50
90.0
 51
180.0
  0
ARC
  5
A9F3
  8
DANMEN
  6
DASHED
 10
259.41532199999989
 20
324.03523999999987
 30
0.0
 40
0.5
 50
90.0
 51
180.0
  0
ARC
  5
A9F4
  8
DANMEN
  6
CONTINUOUS
 10
260.76532200000003
 20
325.03523999999999
 30
0.0
 40
0.5
 50
270.0
 51
0.0
  0
LINE
  5
A9F6
  8
DANMEN
  6
CONTINUOUS
 10
261.26532200000003
 20
324.53524299999998
 30
0.0
 11
261.26532200000003
 21
329.03524299999998
 31
0.0
  0
LINE
  5
A9F8
  8
DANMEN
  6
CONTINUOUS
 10
262.76532200000003
 20
324.385243
 30
0.0
 11
262.76532200000003
 21
329.03524299999998
 31
0.0
  0
LINE
  5
A9FA
  8
DANMEN
  6
DASHED
 10
261.26532200000003
 20
324.53523999999987
 30
0.0
 11
261.26532200000003
 21
329.13613399999991
 31
0.0
  0
ARC
  5
A9FD
  8
DANMEN
  6
DASHED
 10
262.76532200000003
 20
325.03523999999999
 30
0.0
 40
0.5
 50
180.0
 51
270.0
  0
LINE
  5
A9FE
  8
DANMEN
  6
CONTINUOUS
 10
260.56532199999998
 20
329.53523999999999
 30
0.0
 11
261.26532200000003
 21
329.53523999999999
 31
0.0
  0
ARC
  5
A9FF
  8
DANMEN
  6
DASHED
 10
260.86532099999988
 20
329.836141
 30
0.0
 40
0.3
 50
154.13384600000001
 51
231.58991399999999
  0
LINE
  5
AA00
  8
DANMEN
  6
DASHED
 10
262.19537700000001
 20
333.26705299999992
 30
0.0
 11
260.59537699999993
 21
329.96702199999999
 31
0.0
  0
LINE
  5
AA06
  8
DANMEN
  6
CONTINUOUS
 10
261.76532200000003
 20
329.53524299999998
 30
0.0
 11
262.26532200000003
 21
329.53524299999998
 31
0.0
  0
ARC
  5
AA0A
  8
DANMEN
  6
DASHED
 10
262.46532200000001
 20
333.13617199999999
 30
0.0
 40
0.3
 50
347.00047899999993
 51
154.13384600000001
  0
LINE
  5
AA0B
  8
DANMEN
  6
DASHED
 10
262.26532200000003
 20
330.936172
 30
0.0
 11
262.757634
 21
333.06868899999989
 31
0.0
  0
LINE
  5
AA0F
  8
DANMEN
  6
CONTINUOUS
 10
302.2653279999999
 20
320.80121699999989
 30
0.0
 11
302.2653279999999
 21
309.05648600000001
 31
0.0
  0
LINE
  5
AA10
  8
DANMEN
  6
CONTINUOUS
 10
300.760941
 20
319.61609599999991
 30
0.0
 11
301.428673
 21
309.81347299999987
 31
0.0
  0
LINE
  5
AA11
  8
DANMEN
  6
CONTINUOUS
 10
299.41531999999989
 20
320.80907500000001
 30
0.0
 11
299.41531999999989
 21
309.03524099999998
 31
0.0
  0
LINE
  5
AA12
  8
DANMEN
  6
CONTINUOUS
 10
299.71531999999991
 20
324.310655
 30
0.0
 11
299.71531999999991
 21
308.85263199999991
 31
0.0
  0
LINE
  5
AA13
  8
DANMEN
  6
CONTINUOUS
 10
287.61532199999999
 20
312.56554599999993
 30
0.0
 11
287.61532199999999
 21
311.18523999999991
 31
0.0
  0
LINE
  5
AA14
  8
DANMEN
  6
CONTINUOUS
 10
292.71532200000001
 20
312.48130099999997
 30
0.0
 11
292.71532200000001
 21
311.23523999999992
 31
0.0
  0
LINE
  5
AA15
  8
DANMEN
  6
CONTINUOUS
 10
289.11532199999999
 20
312.48130099999997
 30
0.0
 11
289.11532199999999
 21
311.23523999999992
 31
0.0
  0
LINE
  5
AA16
  8
DANMEN
  6
CONTINUOUS
 10
299.415322
 20
309.03523999999987
 30
0.0
 11
299.415322
 21
319.68523999999991
 31
0.0
  0
LINE
  5
AA17
  8
DANMEN
  6
CONTINUOUS
 10
297.76532200000003
 20
310.18523999999991
 30
0.0
 11
297.76532200000003
 21
319.68523999999991
 31
0.0
  0
LINE
  5
AA18
  8
DANMEN
  6
CONTINUOUS
 10
294.21532200000001
 20
312.56554599999993
 30
0.0
 11
294.21532200000001
 21
311.18523999999991
 31
0.0
  0
ARC
  5
AA19
  8
DANMEN
  6
CONTINUOUS
 10
290.11532199999999
 20
311.23523999999992
 30
0.0
 40
1.0
 50
180.0
 51
270.0
  0
ARC
  5
AA1B
  8
DANMEN
  6
CONTINUOUS
 10
286.61532199999999
 20
311.18523999999991
 30
0.0
 40
1.0
 50
270.0
 51
0.0
  0
ARC
  5
AA1C
  8
DANMEN
  6
CONTINUOUS
 10
304.51532200000003
 20
290.03523999999999
 30
0.0
 40
0.5
 50
90.0
 51
270.0
  0
LINE
  5
AA1F
  8
DANMEN
  6
CONTINUOUS
 10
297.76532200000003
 20
310.18523999999991
 30
0.0
 11
295.2153219999999
 21
310.18523999999991
 31
0.0
  0
LINE
  5
AA20
  8
DANMEN
  6
CONTINUOUS
 10
291.71532200000001
 20
310.23523999999998
 30
0.0
 11
290.11532199999999
 21
310.23523999999998
 31
0.0
  0
ARC
  5
AA21
  8
DANMEN
  6
CONTINUOUS
 10
291.71532200000001
 20
311.23523999999992
 30
0.0
 40
1.0
 50
270.0
 51
0.0
  0
ARC
  5
AA23
  8
DANMEN
  6
CONTINUOUS
 10
295.2153219999999
 20
311.18523999999991
 30
0.0
 40
1.0
 50
180.0
 51
270.0
  0
ARC
  5
AA25
  8
DANMEN
  6
CONTINUOUS
 10
301.92751699999991
 20
309.84745299999992
 30
0.0
 40
0.5
 50
183.89683999999991
 51
238.6713069999999
  0
LINE
  5
AA2B
  8
DANMEN
  6
CONTINUOUS
 10
289.51532200000003
 20
314.135246
 30
0.0
 11
288.37594999999999
 21
314.135246
 31
0.0
  0
ARC
  5
AA2C
  8
DANMEN
  6
CONTINUOUS
 10
290.11532199999999
 20
312.48130099999997
 30
0.0
 40
1.0
 50
114.6243179999999
 51
180.0
  0
ARC
  5
AA2F
  8
DANMEN
  6
CONTINUOUS
 10
289.61532199999999
 20
312.56554599999993
 30
0.0
 40
2.0
 50
128.29347699999991
 51
180.0
  0
LINE
  5
AA31
  8
DANMEN
  6
CONTINUOUS
 10
302.31531999999999
 20
323.821708
 30
0.0
 11
302.31531999999999
 21
321.11640399999987
 31
0.0
  0
LINE
  5
AA32
  8
DANMEN
  6
CONTINUOUS
 10
299.41531999999989
 20
324.30907500000001
 30
0.0
 11
299.41531999999989
 21
323.10907500000002
 31
0.0
  0
LINE
  5
AA33
  8
DANMEN
  6
CONTINUOUS
 10
300.987323
 20
322.12154299999997
 30
0.0
 11
301.42931699999991
 21
324.142089
 31
0.0
  0
LINE
  5
AA34
  8
DANMEN
  6
CONTINUOUS
 10
297.31531899999999
 20
321.33524
 30
0.0
 11
297.31531899999999
 21
325.13524000000001
 31
0.0
  0
LINE
  5
AA35
  8
DANMEN
  6
CONTINUOUS
 10
295.66531900000001
 20
321.18523999999991
 30
0.0
 11
295.66531900000001
 21
325.28523999999999
 31
0.0
  0
LINE
  5
AA36
  8
DANMEN
  6
CONTINUOUS
 10
302.31531899999987
 20
321.18523999999991
 30
0.0
 11
302.31531899999987
 21
324.53523999999987
 31
0.0
  0
ARC
  5
AA37
  8
DANMEN
  6
DASHED
 10
301.36532199999999
 20
324.03523999999987
 30
0.0
 40
0.5
 50
270.0
 51
0.0
  0
CIRCLE
  5
AA38
  8
DANMEN
  6
CONTINUOUS
 10
299.06531899999987
 20
323.23523999999992
 30
0.0
 40
2.0
  0
LINE
  5
AA39
  8
DANMEN
  6
CONTINUOUS
 10
297.31531899999999
 20
321.33524
 30
0.0
 11
300.010423
 21
321.33524
 31
0.0
  0
LINE
  5
AA3A
  8
DANMEN
  6
CONTINUOUS
 10
297.1653189999999
 20
319.68523999999991
 30
0.0
 11
297.76532200000003
 21
319.68523999999991
 31
0.0
  0
CIRCLE
  5
AA3B
  8
DANMEN
  6
CONTINUOUS
 10
297.52922699999999
 20
323.37255800000003
 30
0.0
 40
0.1
  0
LINE
  5
AA3C
  8
DANMEN
  6
CONTINUOUS
 10
292.31532199999998
 20
314.135246
 30
0.0
 11
293.45469400000002
 21
314.135246
 31
0.0
  0
ARC
  5
AA40
  8
DANMEN
  6
CONTINUOUS
 10
292.31532199999998
 20
313.83524
 30
0.0
 40
0.3
 50
90.0
 51
180.0
  0
ARC
  5
AA41
  8
DANMEN
  6
CONTINUOUS
 10
289.51532200000003
 20
313.83524
 30
0.0
 40
0.3
 50
0.0
 51
90.0
  0
LINE
  5
AA42
  8
DANMEN
  6
CONTINUOUS
 10
292.01532200000003
 20
313.83524
 30
0.0
 11
292.01532200000003
 21
313.57217200000002
 31
0.0
  0
ARC
  5
AA43
  8
DANMEN
  6
CONTINUOUS
 10
291.71532200000001
 20
312.48130099999997
 30
0.0
 40
1.0
 50
0.0
 51
65.375681999999983
  0
ARC
  5
AA44
  8
DANMEN
  6
CONTINUOUS
 10
292.21532200000001
 20
313.57217200000002
 30
0.0
 40
0.2
 50
180.0
 51
245.3756819999999
  0
ARC
  5
AA45
  8
DANMEN
  6
CONTINUOUS
 10
289.61532199999999
 20
313.57217200000002
 30
0.0
 40
0.2
 50
294.62431800000002
 51
0.0
  0
LINE
  5
AA46
  8
DANMEN
  6
CONTINUOUS
 10
289.81532199999998
 20
313.83524
 30
0.0
 11
289.81532199999998
 21
313.57217200000002
 31
0.0
  0
ARC
  5
AA47
  8
DANMEN
  6
CONTINUOUS
 10
292.21532200000001
 20
312.56554599999993
 30
0.0
 40
2.0
 50
0.0
 51
51.706522999999997
  0
ARC
  5
AA49
  8
DANMEN
  6
CONTINUOUS
 10
297.1653189999999
 20
321.18523999999991
 30
0.0
 40
1.5
 50
180.0
 51
270.0
  0
ARC
  5
AA4B
  8
DANMEN
  6
CONTINUOUS
 10
300.81531999999999
 20
321.11640399999987
 30
0.0
 40
1.5
 50
270.30174899999997
 51
0.0
  0
ARC
  5
AA4C
  8
DANMEN
  6
CONTINUOUS
 10
300.81531899999987
 20
321.18523999999991
 30
0.0
 40
1.5
 50
270.0
 51
0.0
  0
LINE
  5
AA4D
  8
DANMEN
  6
CONTINUOUS
 10
299.41531999999989
 20
320.8090259999999
 30
0.0
 11
299.71531999999991
 21
320.81060599999989
 31
0.0
  0
LINE
  5
AA4E
  8
DANMEN
  6
CONTINUOUS
 10
299.42163999999991
 20
323.10909099999998
 30
0.0
 11
299.71531999999991
 21
323.11063799999988
 31
0.0
  0
LINE
  5
AA50
  8
DANMEN
  6
CONTINUOUS
 10
300.760941
 20
319.61609599999991
 30
0.0
 11
300.82321999999999
 21
319.61642399999988
 31
0.0
  0
LINE
  5
AA53
  8
DANMEN
  6
CONTINUOUS
 10
299.415322
 20
319.68523999999991
 30
0.0
 11
300.81531899999987
 21
319.68523999999991
 31
0.0
  0
ARC
  5
AA55
  8
DANMEN
  6
CONTINUOUS
 10
300.010423
 20
322.33524
 30
0.0
 40
1.0
 50
270.0
 51
347.66091199999988
  0
CIRCLE
  5
AA57
  8
DANMEN
  6
CONTINUOUS
 10
300.43865199999999
 20
323.50987599999991
 30
0.0
 40
0.1
  0
CIRCLE
  5
AA58
  8
DANMEN
  6
CONTINUOUS
 10
298.29305799999997
 20
322.866198
 30
0.0
 40
0.1
  0
CIRCLE
  5
AA59
  8
DANMEN
  6
CONTINUOUS
 10
299.59757999999999
 20
322.84045099999992
 30
0.0
 40
0.1
  0
CIRCLE
  5
AA5A
  8
DANMEN
  6
CONTINUOUS
 10
300.5073109999999
 20
322.4113319999999
 30
0.0
 40
0.1
  0
CIRCLE
  5
AA5B
  8
DANMEN
  6
CONTINUOUS
 10
298.9624839999999
 20
322.17960799999997
 30
0.0
 40
0.1
  0
CIRCLE
  5
AA5C
  8
DANMEN
  6
CONTINUOUS
 10
297.743786
 20
322.17960799999997
 30
0.0
 40
0.1
  0
CIRCLE
  5
AA5D
  8
DANMEN
  6
CONTINUOUS
 10
298.59344199999992
 20
321.6217529999999
 30
0.0
 40
0.1
  0
CIRCLE
  5
AA5E
  8
DANMEN
  6
CONTINUOUS
 10
299.84646800000002
 20
321.76765399999988
 30
0.0
 40
0.1
  0
CIRCLE
  5
AA5F
  8
DANMEN
  6
CONTINUOUS
 10
299.28861399999988
 20
323.45838199999992
 30
0.0
 40
0.1
  0
LINE
  5
AA63
  8
DANMEN
  6
CONTINUOUS
 10
297.31531899999999
 20
325.13524000000001
 30
0.0
 11
298.41531900000001
 21
325.13524000000001
 31
0.0
  0
LINE
  5
AA64
  8
DANMEN
  6
CONTINUOUS
 10
297.1653189999999
 20
326.78523999999987
 30
0.0
 11
297.91531900000001
 21
326.78523999999987
 31
0.0
  0
ARC
  5
AA66
  8
DANMEN
  6
CONTINUOUS
 10
297.1653189999999
 20
325.28523999999999
 30
0.0
 40
1.5
 50
90.0
 51
180.0
  0
ARC
  5
AA68
  8
DANMEN
  6
CONTINUOUS
 10
300.01532200000003
 20
329.03523999999987
 30
0.0
 40
0.5
 50
90.0
 51
180.0
  0
ARC
  5
AA69
  8
DANMEN
  6
CONTINUOUS
 10
300.01532200000003
 20
329.03523999999987
 30
0.0
 40
0.5
 50
0.0
 51
90.0
  0
ARC
  5
AA6A
  8
DANMEN
  6
CONTINUOUS
 10
298.41531900000001
 20
329.03524599999992
 30
0.0
 40
0.5
 50
90.0
 51
180.0
  0
ARC
  5
AA6B
  8
DANMEN
  6
CONTINUOUS
 10
298.91531900000001
 20
329.03524599999992
 30
0.0
 40
0.5
 50
0.0
 51
90.0
  0
LINE
  5
AA6C
  8
DANMEN
  6
DASHED
 10
299.515331
 20
329.13614100000001
 30
0.0
 11
300.10170799999997
 21
329.601066
 31
0.0
  0
LINE
  5
AA6D
  8
DANMEN
  6
DASHED
 10
298.51532200000003
 20
325.03523999999999
 30
0.0
 11
298.51532200000003
 21
330.936172
 31
0.0
  0
LINE
  5
AA6E
  8
DANMEN
  6
CONTINUOUS
 10
300.51532200000003
 20
326.18523999999991
 30
0.0
 11
302.26532200000003
 21
326.18523999999991
 31
0.0
  0
LINE
  5
AA6F
  8
DANMEN
  6
CONTINUOUS
 10
300.01532200000003
 20
324.53523999999987
 30
0.0
 11
303.415322
 21
324.53523999999987
 31
0.0
  0
LINE
  5
AA70
  8
DANMEN
  6
CONTINUOUS
 10
299.41531999999989
 20
324.30907500000001
 30
0.0
 11
301.81268699999998
 21
324.3217009999999
 31
0.0
  0
ARC
  5
AA71
  8
DANMEN
  6
CONTINUOUS
 10
301.91776699999991
 20
324.03523999999987
 30
0.0
 40
0.5
 50
90.0
 51
167.660912
  0
ARC
  5
AA72
  8
DANMEN
  6
DASHED
 10
301.36532199999999
 20
324.03523999999987
 30
0.0
 40
0.5
 50
0.0
 51
90.0
  0
LINE
  5
AA74
  8
DANMEN
  6
CONTINUOUS
 10
299.51532200000003
 20
329.03523999999987
 30
0.0
 11
299.51532200000003
 21
325.03523999999999
 31
0.0
  0
ARC
  5
AA75
  8
DANMEN
  6
CONTINUOUS
 10
300.01532200000003
 20
325.03523999999999
 30
0.0
 40
0.5
 50
180.0
 51
270.0
  0
LINE
  5
AA77
  8
DANMEN
  6
CONTINUOUS
 10
300.51532200000003
 20
329.03523999999987
 30
0.0
 11
300.51532200000003
 21
326.18523999999991
 31
0.0
  0
LINE
  5
AA7B
  8
DANMEN
  6
CONTINUOUS
 10
299.41531900000001
 20
326.13524000000001
 30
0.0
 11
299.41531900000001
 21
329.03524599999992
 31
0.0
  0
LINE
  5
AA7C
  8
DANMEN
  6
CONTINUOUS
 10
297.91531900000001
 20
326.78523999999987
 30
0.0
 11
297.91531900000001
 21
329.03524599999992
 31
0.0
  0
ARC
  5
AA7D
  8
DANMEN
  6
CONTINUOUS
 10
298.41531900000001
 20
326.13524000000001
 30
0.0
 40
1.0
 50
270.0
 51
0.0
  0
LINE
  5
AA81
  8
DANMEN
  6
DASHED
 10
299.51532200000003
 20
324.53523999999987
 30
0.0
 11
299.51532200000003
 21
329.13613399999991
 31
0.0
  0
LINE
  5
AA84
  8
DANMEN
  6
DASHED
 10
301.36532199999999
 20
324.53523999999987
 30
0.0
 11
299.51532200000003
 21
324.53523999999987
 31
0.0
  0
ARC
  5
AA85
  8
DANMEN
  6
DASHED
 10
298.01532200000003
 20
325.03523999999999
 30
0.0
 40
0.5
 50
270.0
 51
0.0
  0
CIRCLE
  5
AA86
  8
DANMEN
  6
CONTINUOUS
 10
299.83788599999991
 20
324.40244300000001
 30
0.0
 40
0.1
  0
CIRCLE
  5
AA87
  8
DANMEN
  6
CONTINUOUS
 10
299.83788599999991
 20
324.40244300000001
 30
0.0
 40
0.1
  0
CIRCLE
  5
AA88
  8
DANMEN
  6
CONTINUOUS
 10
299.83788599999991
 20
324.40244300000001
 30
0.0
 40
0.1
  0
CIRCLE
  5
AA89
  8
DANMEN
  6
CONTINUOUS
 10
298.65351800000002
 20
324.05914799999988
 30
0.0
 40
0.1
  0
CIRCLE
  5
AA8A
  8
DANMEN
  6
CONTINUOUS
 10
297.872522
 20
324.40244300000001
 30
0.0
 40
0.1
  0
CIRCLE
  5
AA8B
  8
DANMEN
  6
CONTINUOUS
 10
299.03972499999998
 20
324.83156200000002
 30
0.0
 40
0.1
  0
ARC
  5
AA8D
  8
DANMEN
  6
CONTINUOUS
 10
303.415322
 20
325.03523999999999
 30
0.0
 40
0.5
 50
270.0
 51
0.0
  0
ARC
  5
AA90
  8
DANMEN
  6
CONTINUOUS
 10
301.81531999999999
 20
323.821708
 30
0.0
 40
0.5
 50
0.0
 51
90.301749000000001
  0
LINE
  5
AA93
  8
DANMEN
  6
CONTINUOUS
 10
302.31531899999987
 20
324.53523999999987
 30
0.0
 11
301.91776800000002
 21
324.53523999999987
 31
0.0
  0
LINE
  5
AA9A
  8
DANMEN
  6
CONTINUOUS
 10
298.91531900000001
 20
329.53524599999992
 30
0.0
 11
298.41531900000001
 21
329.53524599999992
 31
0.0
  0
LINE
  5
AA9C
  8
DANMEN
  6
DASHED
 10
298.58526699999987
 20
333.26705299999992
 30
0.0
 11
300.18526700000001
 21
329.96702199999999
 31
0.0
  0
LINE
  5
AAA0
  8
DANMEN
  6
DASHED
 10
298.51532200000003
 20
330.936172
 30
0.0
 11
298.02300999999989
 21
333.06868899999989
 31
0.0
  0
ARC
  5
AAA1
  8
DANMEN
  6
DASHED
 10
298.31532199999998
 20
333.13617199999999
 30
0.0
 40
0.3
 50
25.866154000000002
 51
192.9995209999999
  0
ARC
  5
AAA2
  8
DANMEN
  6
DASHED
 10
299.915323
 20
329.836141
 30
0.0
 40
0.3
 50
308.41008599999992
 51
25.866154000000002
  0
LINE
  5
AAA5
  8
DANMEN
  6
CONTINUOUS
 10
310.91531900000001
 20
300.53523999999999
 30
0.0
 11
310.91531900000001
 21
272.03523999999987
 31
0.0
  0
LINE
  5
AAA6
  8
DANMEN
  6
CONTINUOUS
 10
307.06532199999998
 20
280.53523999999987
 30
0.0
 11
307.06532199999998
 21
289.53523999999987
 31
0.0
  0
LINE
  5
AAA7
  8
DANMEN
  6
CONTINUOUS
 10
308.71532200000001
 20
277.03523999999987
 30
0.0
 11
308.71532200000001
 21
300.53523999999999
 31
0.0
  0
LINE
  5
AAA8
  8
DANMEN
  6
CONTINUOUS
 10
310.91531900000001
 20
269.03523999999999
 30
0.0
 11
310.91531900000001
 21
245.53523899999999
 31
0.0
  0
LINE
  5
AAA9
  8
DANMEN
  6
CONTINUOUS
 10
307.06532599999991
 20
260.53523899999988
 30
0.0
 11
307.06532599999991
 21
251.53523899999999
 31
0.0
  0
LINE
  5
AAAA
  8
DANMEN
  6
CONTINUOUS
 10
308.715326
 20
264.03523899999988
 30
0.0
 11
308.715326
 21
245.53523899999999
 31
0.0
  0
ARC
  5
AAAB
  8
DANMEN
  6
CONTINUOUS
 10
313.41532299999989
 20
248.53523899999999
 30
0.0
 40
0.5
 50
0.0
 51
89.999981999999974
  0
LINE
  5
AAAC
  8
DANMEN
  6
CONTINUOUS
 10
307.06532599999991
 20
250.53523899999999
 30
0.0
 11
307.06532599999991
 21
243.62339600000001
 31
0.0
  0
LINE
  5
AAAD
  8
DANMEN
  6
CONTINUOUS
 10
313.915323
 20
248.53523899999999
 30
0.0
 11
313.915323
 21
244.53523899999999
 31
0.0
  0
LINE
  5
AAAE
  8
DANMEN
  6
CONTINUOUS
 10
308.715326
 20
245.53523899999999
 30
0.0
 11
310.91532299999989
 21
245.53523899999999
 31
0.0
  0
ARC
  5
AAB2
  8
DANMEN
  6
CONTINUOUS
 10
310.415323
 20
244.31623300000001
 30
0.0
 40
0.5
 50
301.32869299999999
 51
0.0
  0
LINE
  5
AAB3
  8
DANMEN
  6
CONTINUOUS
 10
310.91532299999989
 20
245.53523899999999
 30
0.0
 11
310.91532299999989
 21
244.31623300000001
 31
0.0
  0
LINE
  5
AAB6
  8
DANMEN
  6
CONTINUOUS
 10
310.91532299999989
 20
242.53523899999999
 30
0.0
 11
311.915323
 21
242.53523899999999
 31
0.0
  0
ARC
  5
AABD
  8
DANMEN
  6
CONTINUOUS
 10
308.215326
 20
264.03523899999988
 30
0.0
 40
0.5
 50
0.0
 51
89.999981999999974
  0
ARC
  5
AAC1
  8
DANMEN
  6
CONTINUOUS
 10
308.21532200000001
 20
277.03523999999987
 30
0.0
 40
0.5
 50
270.0000179999999
 51
0.0
  0
LINE
  5
AAC4
  8
DANMEN
  6
CONTINUOUS
 10
359.13421699999992
 20
261.88524000000001
 30
0.0
 11
370.484217
 21
261.88524000000001
 31
0.0
  0
ARC
  5
AAC8
  8
DANMEN
  6
CONTINUOUS
 10
357.984217
 20
263.03523999999999
 30
0.0
 40
0.5
 50
89.999981999999974
 51
180.0000189999999
  0
LINE
  5
AACA
  8
DANMEN
  6
CONTINUOUS
 10
307.06532199999998
 20
290.53523999999987
 30
0.0
 11
307.06532199999998
 21
302.44708199999991
 31
0.0
  0
LINE
  5
AACD
  8
DANMEN
  6
CONTINUOUS
 10
308.71532200000001
 20
300.53523999999999
 30
0.0
 11
310.91531900000001
 21
300.53523999999999
 31
0.0
  0
LINE
  5
AAD2
  8
DANMEN
  6
CONTINUOUS
 10
311.71532000000002
 20
301.28524099999998
 30
0.0
 11
311.71532000000002
 21
302.742324
 31
0.0
  0
ARC
  5
AAD5
  8
DANMEN
  6
CONTINUOUS
 10
310.71532000000002
 20
302.742324
 30
0.0
 40
1.0
 50
0.0
 51
58.671306999999992
  0
LINE
  5
AAD7
  8
DANMEN
  6
CONTINUOUS
 10
310.91532000000001
 20
302.03524099999998
 30
0.0
 11
311.21532000000002
 21
302.03524099999998
 31
0.0
  0
LINE
  5
AAD8
  8
DANMEN
  6
CONTINUOUS
 10
311.21532000000002
 20
301.28524099999998
 30
0.0
 11
311.21532000000002
 21
302.03524099999998
 31
0.0
  0
ARC
  5
AAD9
  8
DANMEN
  6
CONTINUOUS
 10
311.46532000000002
 20
301.28524099999998
 30
0.0
 40
0.25
 50
180.0
 51
0.0
  0
LINE
  5
AADC
  8
DANMEN
  6
CONTINUOUS
 10
310.91531900000001
 20
300.53523999999999
 30
0.0
 11
310.91531900000001
 21
301.75424399999991
 31
0.0
  0
ARC
  5
AADE
  8
DANMEN
  6
CONTINUOUS
 10
310.41531900000001
 20
301.75424399999991
 30
0.0
 40
0.5
 50
0.0
 51
58.671301
  0
LINE
  5
AAE0
  8
DANMEN
  6
CONTINUOUS
 10
310.91531900000001
 20
300.53523999999999
 30
0.0
 11
310.91531900000001
 21
301.75424399999991
 31
0.0
  0
ARC
  5
AAE2
  8
DANMEN
  6
CONTINUOUS
 10
310.41531900000001
 20
301.75424399999991
 30
0.0
 40
0.5
 50
0.0
 51
58.671301
  0
LINE
  5
AAE4
  8
DANMEN
  6
CONTINUOUS
 10
260.56532199999998
 20
345.03524299999998
 30
0.0
 11
299.415322
 21
345.03524299999998
 31
0.0
  0
LINE
  5
AAE5
  8
DANMEN
  6
CONTINUOUS
 10
260.06532199999998
 20
374.53524499999997
 30
0.0
 11
303.915322
 21
374.53524499999997
 31
0.0
  0
LINE
  5
AAE6
  8
DANMEN
  6
CONTINUOUS
 10
272.21531599999997
 20
352.18523999999991
 30
0.0
 11
286.61532199999999
 21
352.18523999999991
 31
0.0
  0
LINE
  5
AAE7
  8
DANMEN
  6
CONTINUOUS
 10
260.56532199999998
 20
350.53523999999999
 30
0.0
 11
302.26532200000003
 21
350.53523999999999
 31
0.0
  0
LINE
  5
AAE8
  8
DANMEN
  6
CONTINUOUS
 10
258.915322
 20
362.87849799999992
 30
0.0
 11
258.915322
 21
349.18523999999991
 31
0.0
  0
LINE
  5
AAE9
  8
DANMEN
  6
CONTINUOUS
 10
260.56532199999998
 20
362.88525099999993
 30
0.0
 11
260.56532199999998
 21
352.18523999999991
 31
0.0
  0
LINE
  5
AAEA
  8
DANMEN
  6
CONTINUOUS
 10
255.06532200000001
 20
349.18523999999991
 30
0.0
 11
258.915322
 21
349.18523999999991
 31
0.0
  0
LINE
  5
AAEB
  8
DANMEN
  6
CONTINUOUS
 10
252.415322
 20
347.53523999999987
 30
0.0
 11
258.915322
 21
347.53523999999987
 31
0.0
  0
LINE
  5
AAEC
  8
DANMEN
  6
CONTINUOUS
 10
253.5653219999999
 20
353.13524000000001
 30
0.0
 11
247.915322
 21
353.13524000000001
 31
0.0
  0
LINE
  5
AAEE
  8
DANMEN
  6
CONTINUOUS
 10
246.915322
 20
354.13524000000001
 30
0.0
 11
246.915322
 21
354.48523999999992
 31
0.0
  0
ARC
  5
AAF0
  8
DANMEN
  6
CONTINUOUS
 10
247.915322
 20
354.13524000000001
 30
0.0
 40
1.0
 50
180.0
 51
270.0
  0
ARC
  5
AAF2
  8
DANMEN
  6
CONTINUOUS
 10
253.5653219999999
 20
351.63524000000001
 30
0.0
 40
1.5
 50
0.0
 51
90.0
  0
LINE
  5
AAF3
  8
DANMEN
  6
CONTINUOUS
 10
251.915322
 20
348.33524
 30
0.0
 11
253.415322
 21
348.33524
 31
0.0
  0
LINE
  5
AAF4
  8
DANMEN
  6
CONTINUOUS
 10
251.915322
 20
348.33524
 30
0.0
 11
251.915322
 21
348.03523999999999
 31
0.0
  0
ARC
  5
AAF5
  8
DANMEN
  6
CONTINUOUS
 10
252.415322
 20
348.03523999999999
 30
0.0
 40
0.5
 50
180.0
 51
270.0
  0
LINE
  5
AAF8
  8
DANMEN
  6
CONTINUOUS
 10
255.06532200000001
 20
351.63524000000001
 30
0.0
 11
255.06532200000001
 21
349.18523999999991
 31
0.0
  0
LINE
  5
AAF9
  8
DANMEN
  6
CONTINUOUS
 10
253.415322
 20
351.48523999999992
 30
0.0
 11
253.415322
 21
348.33524
 31
0.0
  0
ARC
  5
AAFE
  8
DANMEN
  6
CONTINUOUS
 10
263.61531600000001
 20
353.18523999999991
 30
0.0
 40
1.0
 50
270.0
 51
0.0
  0
ARC
  5
AAFF
  8
DANMEN
  6
CONTINUOUS
 10
266.61531599999989
 20
354.56554599999993
 30
0.0
 40
2.0
 50
128.29347699999991
 51
180.0
  0
LINE
  5
AB00
  8
DANMEN
  6
CONTINUOUS
 10
260.56532199999998
 20
352.18523999999991
 30
0.0
 11
263.61531600000001
 21
352.18523999999991
 31
0.0
  0
LINE
  5
AB06
  8
DANMEN
  6
CONTINUOUS
 10
264.61531600000001
 20
354.56554599999993
 30
0.0
 11
264.61531600000001
 21
353.18523999999991
 31
0.0
  0
ARC
  5
AB07
  8
DANMEN
  6
CONTINUOUS
 10
268.71531599999997
 20
353.23523999999992
 30
0.0
 40
1.0
 50
270.0
 51
0.0
  0
ARC
  5
AB08
  8
DANMEN
  6
CONTINUOUS
 10
267.11531600000001
 20
353.23523999999992
 30
0.0
 40
1.0
 50
180.0
 51
270.0
  0
ARC
  5
AB09
  8
DANMEN
  6
CONTINUOUS
 10
272.21531599999997
 20
353.18523999999991
 30
0.0
 40
1.0
 50
180.0
 51
270.0
  0
LINE
  5
AB0A
  8
DANMEN
  6
CONTINUOUS
 10
268.71531599999997
 20
352.23523999999992
 30
0.0
 11
267.11531600000001
 21
352.23523999999992
 31
0.0
  0
LINE
  5
AB0C
  8
DANMEN
  6
CONTINUOUS
 10
266.815316
 20
355.83523999999989
 30
0.0
 11
266.815316
 21
355.57217200000002
 31
0.0
  0
ARC
  5
AB0D
  8
DANMEN
  6
CONTINUOUS
 10
267.11531600000001
 20
354.48130099999992
 30
0.0
 40
1.0
 50
114.6243179999999
 51
180.0
  0
ARC
  5
AB0E
  8
DANMEN
  6
CONTINUOUS
 10
266.61531599999989
 20
355.57217200000002
 30
0.0
 40
0.2
 50
294.62431800000002
 51
0.0
  0
LINE
  5
AB0F
  8
DANMEN
  6
CONTINUOUS
 10
266.11531600000001
 20
354.48130099999992
 30
0.0
 11
266.11531600000001
 21
353.23523999999992
 31
0.0
  0
LINE
  5
AB11
  8
DANMEN
  6
CONTINUOUS
 10
266.51531599999998
 20
356.13524000000001
 30
0.0
 11
265.37593700000002
 21
356.13524000000001
 31
0.0
  0
ARC
  5
AB12
  8
DANMEN
  6
CONTINUOUS
 10
266.51531599999998
 20
355.83523999999989
 30
0.0
 40
0.3
 50
0.0
 51
90.0
  0
ARC
  5
AB13
  8
DANMEN
  6
CONTINUOUS
 10
269.21531599999997
 20
354.56554599999993
 30
0.0
 40
2.0
 50
0.0
 51
51.706522999999997
  0
ARC
  5
AB14
  8
DANMEN
  6
CONTINUOUS
 10
269.21531599999997
 20
355.57217200000002
 30
0.0
 40
0.2
 50
180.0
 51
245.3756819999999
  0
ARC
  5
AB15
  8
DANMEN
  6
CONTINUOUS
 10
268.71531599999997
 20
354.48130099999992
 30
0.0
 40
1.0
 50
0.0
 51
65.375681999999983
  0
LINE
  5
AB16
  8
DANMEN
  6
CONTINUOUS
 10
269.01531599999998
 20
355.83523999999989
 30
0.0
 11
269.01531599999998
 21
355.57217200000002
 31
0.0
  0
LINE
  5
AB17
  8
DANMEN
  6
CONTINUOUS
 10
269.71531599999997
 20
354.48130099999992
 30
0.0
 11
269.71531599999997
 21
353.23523999999992
 31
0.0
  0
LINE
  5
AB18
  8
DANMEN
  6
CONTINUOUS
 10
270.45469500000002
 20
356.13524000000001
 30
0.0
 11
269.315316
 21
356.13524000000001
 31
0.0
  0
ARC
  5
AB19
  8
DANMEN
  6
CONTINUOUS
 10
269.315316
 20
355.83523999999989
 30
0.0
 40
0.3
 50
90.0
 51
180.0
  0
LINE
  5
AB1A
  8
DANMEN
  6
CONTINUOUS
 10
271.21531599999997
 20
354.56554599999993
 30
0.0
 11
271.21531599999997
 21
353.18523999999991
 31
0.0
  0
LINE
  5
AB1B
  8
DANMEN
  6
CONTINUOUS
 10
258.915322
 20
374.03524499999997
 30
0.0
 11
258.915322
 21
364.53524099999998
 31
0.0
  0
LINE
  5
AB1C
  8
DANMEN
  6
CONTINUOUS
 10
260.56532199999998
 20
374.03524499999997
 30
0.0
 11
260.56532199999998
 21
364.53524499999997
 31
0.0
  0
ARC
  5
AB1D
  8
DANMEN
  6
CONTINUOUS
 10
262.915322
 20
364.03524499999997
 30
0.0
 40
0.5
 50
0.0
 51
89.999981999999974
  0
LINE
  5
AB1E
  8
DANMEN
  6
CONTINUOUS
 10
262.915322
 20
362.88525099999993
 30
0.0
 11
260.56532199999998
 21
362.88525099999993
 31
0.0
  0
ARC
  5
AB22
  8
DANMEN
  6
CONTINUOUS
 10
262.915322
 20
363.38525099999998
 30
0.0
 40
0.5
 50
270.0000179999999
 51
0.0
  0
LINE
  5
AB23
  8
DANMEN
  6
CONTINUOUS
 10
263.41532199999989
 20
364.03524499999997
 30
0.0
 11
263.41532199999989
 21
363.38525099999998
 31
0.0
  0
LINE
  5
AB24
  8
DANMEN
  6
CONTINUOUS
 10
262.915322
 20
364.53524499999997
 30
0.0
 11
260.56532199999998
 21
364.53524499999997
 31
0.0
  0
ARC
  5
AB28
  8
DANMEN
  6
CONTINUOUS
 10
260.06532199999998
 20
374.03524499999997
 30
0.0
 40
0.5
 50
0.0
 51
89.999981999999974
  0
LINE
  5
AB29
  8
DANMEN
  6
CONTINUOUS
 10
260.06532199999998
 20
374.53524499999997
 30
0.0
 11
259.41532199999989
 21
374.53524499999997
 31
0.0
  0
ARC
  5
AB2A
  8
DANMEN
  6
CONTINUOUS
 10
259.41532199999989
 20
374.03524499999997
 30
0.0
 40
0.5
 50
89.999981999999974
 51
180.0000189999999
  0
LINE
  5
AB2D
  8
DANMEN
  6
CONTINUOUS
 10
302.26532200000003
 20
362.8852399999999
 30
0.0
 11
302.26532200000003
 21
352.18523999999991
 31
0.0
  0
ARC
  5
AB2E
  8
DANMEN
  6
CONTINUOUS
 10
290.11532199999999
 20
354.48130099999992
 30
0.0
 40
1.0
 50
114.6243179999999
 51
180.0
  0
ARC
  5
AB2F
  8
DANMEN
  6
CONTINUOUS
 10
290.11532199999999
 20
353.23523999999992
 30
0.0
 40
1.0
 50
180.0
 51
270.0
  0
LINE
  5
AB30
  8
DANMEN
  6
CONTINUOUS
 10
288.37594299999989
 20
356.13524000000001
 30
0.0
 11
289.51532200000003
 21
356.13524000000001
 31
0.0
  0
ARC
  5
AB31
  8
DANMEN
  6
CONTINUOUS
 10
286.61532199999999
 20
353.18523999999991
 30
0.0
 40
1.0
 50
270.0
 51
0.0
  0
LINE
  5
AB33
  8
DANMEN
  6
CONTINUOUS
 10
289.11532199999999
 20
354.48130099999992
 30
0.0
 11
289.11532199999999
 21
353.23523999999992
 31
0.0
  0
ARC
  5
AB35
  8
DANMEN
  6
CONTINUOUS
 10
289.61532199999999
 20
354.56554599999993
 30
0.0
 40
2.0
 50
128.29347699999991
 51
180.0
  0
LINE
  5
AB36
  8
DANMEN
  6
CONTINUOUS
 10
287.61532199999999
 20
354.56554599999993
 30
0.0
 11
287.61532199999999
 21
353.18523999999991
 31
0.0
  0
LINE
  5
AB37
  8
DANMEN
  6
CONTINUOUS
 10
295.2153219999999
 20
352.18523999999991
 30
0.0
 11
302.26532200000003
 21
352.18523999999991
 31
0.0
  0
ARC
  5
AB38
  8
DANMEN
  6
CONTINUOUS
 10
295.2153219999999
 20
353.18523999999991
 30
0.0
 40
1.0
 50
180.0
 51
270.0
  0
ARC
  5
AB39
  8
DANMEN
  6
CONTINUOUS
 10
291.71532200000001
 20
353.23523999999992
 30
0.0
 40
1.0
 50
270.0
 51
0.0
  0
LINE
  5
AB3A
  8
DANMEN
  6
CONTINUOUS
 10
291.71532200000001
 20
352.23523999999992
 30
0.0
 11
290.11532199999999
 21
352.23523999999992
 31
0.0
  0
LINE
  5
AB3C
  8
DANMEN
  6
CONTINUOUS
 10
293.454701
 20
356.13524000000001
 30
0.0
 11
292.31532199999998
 21
356.13524000000001
 31
0.0
  0
LINE
  5
AB3D
  8
DANMEN
  6
CONTINUOUS
 10
289.81532199999998
 20
355.83523999999989
 30
0.0
 11
289.81532199999998
 21
355.57217200000002
 31
0.0
  0
ARC
  5
AB3E
  8
DANMEN
  6
CONTINUOUS
 10
289.61532199999999
 20
355.57217200000002
 30
0.0
 40
0.2
 50
294.62431800000002
 51
0.0
  0
ARC
  5
AB3F
  8
DANMEN
  6
CONTINUOUS
 10
292.21532200000001
 20
355.57217200000002
 30
0.0
 40
0.2
 50
180.0
 51
245.3756819999999
  0
ARC
  5
AB40
  8
DANMEN
  6
CONTINUOUS
 10
291.71532200000001
 20
354.48130099999992
 30
0.0
 40
1.0
 50
0.0
 51
65.375681999999983
  0
LINE
  5
AB41
  8
DANMEN
  6
CONTINUOUS
 10
292.01532200000003
 20
355.83523999999989
 30
0.0
 11
292.01532200000003
 21
355.57217200000002
 31
0.0
  0
LINE
  5
AB42
  8
DANMEN
  6
CONTINUOUS
 10
292.71532200000001
 20
354.48130099999992
 30
0.0
 11
292.71532200000001
 21
353.23523999999992
 31
0.0
  0
ARC
  5
AB44
  8
DANMEN
  6
CONTINUOUS
 10
289.51532200000003
 20
355.83523999999989
 30
0.0
 40
0.3
 50
0.0
 51
90.0
  0
ARC
  5
AB45
  8
DANMEN
  6
CONTINUOUS
 10
292.31532199999998
 20
355.83523999999989
 30
0.0
 40
0.3
 50
90.0
 51
180.0
  0
ARC
  5
AB46
  8
DANMEN
  6
CONTINUOUS
 10
292.21532200000001
 20
354.56554599999993
 30
0.0
 40
2.0
 50
0.0
 51
51.706522999999997
  0
LINE
  5
AB47
  8
DANMEN
  6
CONTINUOUS
 10
294.21532200000001
 20
354.56554599999993
 30
0.0
 11
294.21532200000001
 21
353.18523999999991
 31
0.0
  0
LINE
  5
AB4A
  8
DANMEN
  6
CONTINUOUS
 10
295.915322
 20
364.53523999999999
 30
0.0
 11
303.415322
 21
364.53523999999999
 31
0.0
  0
LINE
  5
AB4B
  8
DANMEN
  6
CONTINUOUS
 10
295.915322
 20
362.8852399999999
 30
0.0
 11
302.26532200000003
 21
362.8852399999999
 31
0.0
  0
ARC
  5
AB4C
  8
DANMEN
  6
CONTINUOUS
 10
295.915322
 20
364.03523999999987
 30
0.0
 40
0.5
 50
90.0
 51
180.0
  0
LINE
  5
AB4D
  8
DANMEN
  6
CONTINUOUS
 10
295.415322
 20
363.38524000000001
 30
0.0
 11
295.415322
 21
364.03523999999987
 31
0.0
  0
ARC
  5
AB4E
  8
DANMEN
  6
CONTINUOUS
 10
295.915322
 20
363.38524000000001
 30
0.0
 40
0.5
 50
180.0
 51
270.0
  0
ARC
  5
AB51
  8
DANMEN
  6
CONTINUOUS
 10
303.415322
 20
364.03523999999987
 30
0.0
 40
0.5
 50
0.0
 51
90.0
  0
LINE
  5
AB54
  8
SUNPO
  6
BYBLOCK
 10
303.915322
 20
253.80112
 30
0.0
 11
203.915322
 21
253.80112
 31
0.0
  0
LINE
  5
AB55
  8
SUNPO
  6
BYBLOCK
 10
258.915322
 20
136.5352399999999
 30
0.0
 11
203.915322
 21
136.5352399999999
 31
0.0
  0
LINE
  5
AB56
  8
SUNPO
  6
BYBLOCK
 10
257.41532199999989
 20
146.5352399999999
 30
0.0
 11
193.915322
 21
146.5352399999999
 31
0.0
  0
LINE
  5
AB57
  8
SUNPO
  6
BYBLOCK
 10
200.91532199999989
 20
167.435237
 30
0.0
 11
200.91532199999989
 21
253.80112
 31
0.0
  0
LINE
  5
AB58
  8
SUNPO
  6
BYBLOCK
 10
193.915322
 20
156.5352399999999
 30
0.0
 11
193.915322
 21
216.5352399999999
 31
0.0
  0
LINE
  5
AB59
  8
SUNPO
  6
BYBLOCK
 10
203.915322
 20
155.0352399999999
 30
0.0
 11
203.915322
 21
136.5352399999999
 31
0.0
  0
LINE
  5
AB5A
  8
SUNPO
  6
BYBLOCK
 10
193.915322
 20
146.5352399999999
 30
0.0
 11
193.915322
 21
156.5352399999999
 31
0.0
  0
TEXT
  5
AB5B
  8
SUNPO
  6
CONTINUOUS
 10
193.41532199999989
 20
150.07690700000001
 30
0.0
 40
2.5
  1
10
 50
90.0
  7
MX_NOTE_STANDARD
  0
ARC
  5
AB5D
  8
SUNPO
  6
BYBLOCK
 10
203.915322
 20
136.5352399999999
 30
0.0
 40
0.145
 50
0.0
 51
180.0
  0
ARC
  5
AB5E
  8
SUNPO
  6
BYBLOCK
 10
203.915322
 20
136.5352399999999
 30
0.0
 40
0.145
 50
180.0
 51
0.0
  0
ARC
  5
AB5F
  8
SUNPO
  6
BYBLOCK
 10
193.915322
 20
146.5352399999999
 30
0.0
 40
0.145
 50
90.0
 51
270.0
  0
ARC
  5
AB60
  8
SUNPO
  6
BYBLOCK
 10
193.915322
 20
146.5352399999999
 30
0.0
 40
0.145
 50
270.0
 51
90.0
  0
LINE
  5
AB61
  8
SUNPO
  6
BYBLOCK
 10
202.415322
 20
156.5352399999999
 30
0.0
 11
193.915322
 21
156.5352399999999
 31
0.0
  0
LINE
  5
AB62
  8
SUNPO
  6
CONTINUOUS
 10
193.915322
 20
156.5352399999999
 30
0.0
 11
193.915322
 21
156.5352399999999
 31
0.0
  0
ARC
  5
AB65
  8
SUNPO
  6
BYBLOCK
 10
193.915322
 20
156.5352399999999
 30
0.0
 40
0.145
 50
270.0
 51
90.0
  0
ARC
  5
AB66
  8
SUNPO
  6
BYBLOCK
 10
193.915322
 20
156.5352399999999
 30
0.0
 40
0.145
 50
90.0
 51
270.0
  0
ARC
  5
AB67
  8
SUNPO
  6
BYBLOCK
 10
193.915322
 20
156.5352399999999
 30
0.0
 40
0.145
 50
90.0
 51
270.0
  0
ARC
  5
AB68
  8
SUNPO
  6
BYBLOCK
 10
193.915322
 20
156.5352399999999
 30
0.0
 40
0.145
 50
270.0
 51
90.0
  0
TEXT
  5
AB6C
  8
SUNPO
  6
CONTINUOUS
 10
229.33198799999991
 20
137.0352399999999
 30
0.0
 40
2.5
  1
55
  7
MX_NOTE_STANDARD
  0
TEXT
  5
AB6D
  8
SUNPO
  6
CONTINUOUS
 10
193.41532199999989
 20
184.6602399999999
 30
0.0
 40
2.5
  1
60
 50
90.0
  7
MX_NOTE_STANDARD
  0
LINE
  5
AB6E
  8
SUNPO
  6
BYBLOCK
 10
202.415322
 20
216.5352399999999
 30
0.0
 11
193.915322
 21
216.5352399999999
 31
0.0
  0
ARC
  5
AB70
  8
SUNPO
  6
BYBLOCK
 10
193.915322
 20
216.5352399999999
 30
0.0
 40
0.145
 50
270.0
 51
90.0
  0
ARC
  5
AB71
  8
SUNPO
  6
BYBLOCK
 10
193.915322
 20
216.5352399999999
 30
0.0
 40
0.145
 50
90.0
 51
270.0
  0
TEXT
  5
AB73
  8
SUNPO
  6
CONTINUOUS
 10
201.581988
 20
254.30112
 30
0.0
 40
2.5
  1
3
  7
MX_NOTE_STANDARD
  0
LINE
  5
AB74
  8
SUNPO
  6
BYBLOCK
 10
200.91532199999989
 20
253.80112
 30
0.0
 11
203.915322
 21
253.80112
 31
0.0
  0
ARC
  5
AB75
  8
SUNPO
  6
BYBLOCK
 10
200.91532199999989
 20
253.80112
 30
0.0
 40
0.145
 50
0.0
 51
180.0
  0
ARC
  5
AB76
  8
SUNPO
  6
BYBLOCK
 10
200.91532199999989
 20
253.80112
 30
0.0
 40
0.145
 50
180.0
 51
0.0
  0
ARC
  5
AB79
  8
SUNPO
  6
BYBLOCK
 10
203.915322
 20
253.80112
 30
0.0
 40
0.145
 50
0.0
 51
180.0
  0
ARC
  5
AB7A
  8
SUNPO
  6
BYBLOCK
 10
203.915322
 20
253.80112
 30
0.0
 40
0.145
 50
180.0
 51
0.0
  0
ARC
  5
AB7B
  8
SUNPO
  6
BYBLOCK
 10
203.915322
 20
253.80112
 30
0.0
 40
0.145
 50
180.0
 51
0.0
  0
ARC
  5
AB7C
  8
SUNPO
  6
BYBLOCK
 10
203.915322
 20
253.80112
 30
0.0
 40
0.145
 50
0.0
 51
180.0
  0
LINE
  5
AB7F
  8
SUNPO
  6
CONTINUOUS
 10
333.915322
 20
260.535034
 30
0.0
 11
333.915322
 21
216.5352399999999
 31
0.0
  0
LINE
  5
AB80
  8
SUNPO
  6
BYBLOCK
 10
347.484217
 20
205.3852389999999
 30
0.0
 11
347.484217
 21
136.5352399999999
 31
0.0
  0
LINE
  5
AB81
  8
SUNPO
  6
CONTINUOUS
 10
333.915322
 20
216.5352399999999
 30
0.0
 11
328.915322
 21
221.5352399999999
 31
0.0
  0
LINE
  5
AB82
  8
SUNPO
  6
CONTINUOUS
 10
338.915322
 20
221.5352399999999
 30
0.0
 11
333.915322
 21
216.5352399999999
 31
0.0
  0
LINE
  5
AB83
  8
SUNPO
  6
BYBLOCK
 10
323.91532199999989
 20
264.53523899999988
 30
0.0
 11
323.91532199999989
 21
216.5352399999999
 31
0.0
  0
LINE
  5
AB84
  8
SUNPO
  6
BYBLOCK
 10
304.91532199999989
 20
166.5352399999999
 30
0.0
 11
323.91532199999989
 21
166.5352399999999
 31
0.0
  0
LINE
  5
AB85
  8
SUNPO
  6
BYBLOCK
 10
305.41532199999989
 20
216.5352399999999
 30
0.0
 11
333.915322
 21
216.5352399999999
 31
0.0
  0
LINE
  5
AB86
  8
SUNPO
  6
BYBLOCK
 10
305.41532199999989
 20
146.5352399999999
 30
0.0
 11
333.915322
 21
146.5352399999999
 31
0.0
  0
LINE
  5
AB87
  8
SUNPO
  6
BYBLOCK
 10
305.41532199999989
 20
146.5352399999999
 30
0.0
 11
323.91532199999989
 21
146.5352399999999
 31
0.0
  0
LINE
  5
AB88
  8
SUNPO
  6
BYBLOCK
 10
303.915322
 20
136.5352399999999
 30
0.0
 11
258.915322
 21
136.5352399999999
 31
0.0
  0
LINE
  5
AB89
  8
SUNPO
  6
BYBLOCK
 10
258.915322
 20
145.0352399999999
 30
0.0
 11
258.915322
 21
136.5352399999999
 31
0.0
  0
LINE
  5
AB8A
  8
SUNPO
  6
BYBLOCK
 10
258.915322
 20
145.0352399999999
 30
0.0
 11
258.915322
 21
136.5352399999999
 31
0.0
  0
ARC
  5
AB8C
  8
SUNPO
  6
BYBLOCK
 10
258.915322
 20
136.5352399999999
 30
0.0
 40
0.145
 50
180.0
 51
0.0
  0
ARC
  5
AB8D
  8
SUNPO
  6
BYBLOCK
 10
258.915322
 20
136.5352399999999
 30
0.0
 40
0.145
 50
0.0
 51
180.0
  0
ARC
  5
AB8E
  8
SUNPO
  6
BYBLOCK
 10
258.915322
 20
136.5352399999999
 30
0.0
 40
0.145
 50
0.0
 51
180.0
  0
ARC
  5
AB8F
  8
SUNPO
  6
BYBLOCK
 10
258.915322
 20
136.5352399999999
 30
0.0
 40
0.145
 50
180.0
 51
0.0
  0
TEXT
  5
AB93
  8
SUNPO
  6
CONTINUOUS
 10
279.33198799999991
 20
137.0352399999999
 30
0.0
 40
2.5
  1
45
  7
MX_NOTE_STANDARD
  0
LINE
  5
AB94
  8
SUNPO
  6
BYBLOCK
 10
303.915322
 20
145.0352399999999
 30
0.0
 11
303.915322
 21
136.5352399999999
 31
0.0
  0
ARC
  5
AB95
  8
SUNPO
  6
BYBLOCK
 10
303.915322
 20
136.5352399999999
 30
0.0
 40
0.145
 50
180.0
 51
0.0
  0
ARC
  5
AB96
  8
SUNPO
  6
BYBLOCK
 10
303.915322
 20
136.5352399999999
 30
0.0
 40
0.145
 50
0.0
 51
180.0
  0
LINE
  5
AB9D
  8
SUNPO
  6
BYBLOCK
 10
357.484217
 20
155.0352399999999
 30
0.0
 11
357.484217
 21
136.5352399999999
 31
0.0
  0
LINE
  5
AB9E
  8
SUNPO
  6
BYBLOCK
 10
357.484217
 20
155.0352399999999
 30
0.0
 11
357.484217
 21
146.5352399999999
 31
0.0
  0
LINE
  5
AB9F
  8
SUNPO
  6
BYBLOCK
 10
357.484217
 20
162.0352399999999
 30
0.0
 11
357.484217
 21
136.5352399999999
 31
0.0
  0
LINE
  5
ABA0
  8
SUNPO
  6
BYBLOCK
 10
323.91532199999989
 20
216.5352399999999
 30
0.0
 11
323.91532199999989
 21
166.5352399999999
 31
0.0
  0
LINE
  5
ABA1
  8
SUNPO
  6
BYBLOCK
 10
333.915322
 20
216.5352399999999
 30
0.0
 11
333.915322
 21
146.5352399999999
 31
0.0
  0
LINE
  5
ABA2
  8
SUNPO
  6
BYBLOCK
 10
323.91532199999989
 20
166.5352399999999
 30
0.0
 11
323.91532199999989
 21
146.5352399999999
 31
0.0
  0
ARC
  5
ABA4
  8
SUNPO
  6
BYBLOCK
 10
323.91532199999989
 20
146.5352399999999
 30
0.0
 40
0.145
 50
90.0
 51
270.0
  0
ARC
  5
ABA5
  8
SUNPO
  6
BYBLOCK
 10
323.91532199999989
 20
146.5352399999999
 30
0.0
 40
0.145
 50
270.0
 51
90.0
  0
ARC
  5
ABA7
  8
SUNPO
  6
BYBLOCK
 10
333.915322
 20
146.5352399999999
 30
0.0
 40
0.145
 50
90.0
 51
270.0
  0
ARC
  5
ABA8
  8
SUNPO
  6
BYBLOCK
 10
333.915322
 20
146.5352399999999
 30
0.0
 40
0.145
 50
270.0
 51
90.0
  0
LINE
  5
ABA9
  8
SUNPO
  6
BYBLOCK
 10
315.41532199999989
 20
166.5352399999999
 30
0.0
 11
323.91532199999989
 21
166.5352399999999
 31
0.0
  0
TEXT
  5
ABAA
  8
SUNPO
  6
CONTINUOUS
 10
323.415322
 20
154.6602399999999
 30
0.0
 40
2.5
  1
20
 50
90.0
  7
MX_NOTE_STANDARD
  0
ARC
  5
ABAD
  8
SUNPO
  6
BYBLOCK
 10
323.91532199999989
 20
166.5352399999999
 30
0.0
 40
0.145
 50
90.0
 51
270.0
  0
ARC
  5
ABAE
  8
SUNPO
  6
BYBLOCK
 10
323.91532199999989
 20
166.5352399999999
 30
0.0
 40
0.145
 50
270.0
 51
90.0
  0
ARC
  5
ABAF
  8
SUNPO
  6
BYBLOCK
 10
323.91532199999989
 20
166.5352399999999
 30
0.0
 40
0.145
 50
270.0
 51
90.0
  0
ARC
  5
ABB0
  8
SUNPO
  6
BYBLOCK
 10
323.91532199999989
 20
166.5352399999999
 30
0.0
 40
0.145
 50
90.0
 51
270.0
  0
LINE
  5
ABB1
  8
SUNPO
  6
BYBLOCK
 10
357.484217
 20
136.5352399999999
 30
0.0
 11
347.484217
 21
136.5352399999999
 31
0.0
  0
ARC
  5
ABB3
  8
SUNPO
  6
BYBLOCK
 10
347.484217
 20
136.5352399999999
 30
0.0
 40
0.145
 50
0.0
 51
180.0
  0
ARC
  5
ABB4
  8
SUNPO
  6
BYBLOCK
 10
347.484217
 20
136.5352399999999
 30
0.0
 40
0.145
 50
180.0
 51
0.0
  0
TEXT
  5
ABB5
  8
SUNPO
  6
CONTINUOUS
 10
351.02588300000002
 20
137.0352399999999
 30
0.0
 40
2.5
  1
10
  7
MX_NOTE_STANDARD
  0
ARC
  5
ABB7
  8
SUNPO
  6
BYBLOCK
 10
357.484217
 20
136.5352399999999
 30
0.0
 40
0.145
 50
0.0
 51
180.0
  0
ARC
  5
ABB8
  8
SUNPO
  6
BYBLOCK
 10
357.484217
 20
136.5352399999999
 30
0.0
 40
0.145
 50
180.0
 51
0.0
  0
ARC
  5
ABB9
  8
SUNPO
  6
BYBLOCK
 10
357.484217
 20
136.5352399999999
 30
0.0
 40
0.145
 50
180.0
 51
0.0
  0
ARC
  5
ABBA
  8
SUNPO
  6
BYBLOCK
 10
357.484217
 20
136.5352399999999
 30
0.0
 40
0.145
 50
0.0
 51
180.0
  0
ARC
  5
ABBC
  8
SUNPO
  6
BYBLOCK
 10
357.484217
 20
146.5352399999999
 30
0.0
 40
0.145
 50
0.0
 51
180.0
  0
ARC
  5
ABBD
  8
SUNPO
  6
BYBLOCK
 10
357.484217
 20
146.5352399999999
 30
0.0
 40
0.145
 50
180.0
 51
0.0
  0
TEXT
  5
ABBE
  8
SUNPO
  6
CONTINUOUS
 10
363.31754999999998
 20
147.0352399999999
 30
0.0
 40
2.5
  1
15
  7
MX_NOTE_STANDARD
  0
TEXT
  5
ABBF
  8
SUNPO
  6
CONTINUOUS
 10
323.415322
 20
189.6602399999999
 30
0.0
 40
2.5
  1
50
 50
90.0
  7
MX_NOTE_STANDARD
  0
TEXT
  5
ABC0
  8
SUNPO
  6
CONTINUOUS
 10
333.415322
 20
179.6602399999999
 30
0.0
 40
2.5
  1
70
 50
90.0
  7
MX_NOTE_STANDARD
  0
LINE
  5
ABC1
  8
SUNPO
  6
BYBLOCK
 10
315.41532199999989
 20
216.5352399999999
 30
0.0
 11
323.91532199999989
 21
216.5352399999999
 31
0.0
  0
ARC
  5
ABC4
  8
SUNPO
  6
BYBLOCK
 10
323.91532199999989
 20
216.5352399999999
 30
0.0
 40
0.145
 50
90.0
 51
270.0
  0
ARC
  5
ABC5
  8
SUNPO
  6
BYBLOCK
 10
323.91532199999989
 20
216.5352399999999
 30
0.0
 40
0.145
 50
270.0
 51
90.0
  0
ARC
  5
ABC6
  8
SUNPO
  6
BYBLOCK
 10
323.91532199999989
 20
216.5352399999999
 30
0.0
 40
0.145
 50
270.0
 51
90.0
  0
ARC
  5
ABC7
  8
SUNPO
  6
BYBLOCK
 10
323.91532199999989
 20
216.5352399999999
 30
0.0
 40
0.145
 50
90.0
 51
270.0
  0
LINE
  5
ABCC
  8
SUNPO
  6
BYBLOCK
 10
303.915322
 20
253.80112
 30
0.0
 11
310.91531900000001
 21
253.80112
 31
0.0
  0
TEXT
  5
ABCD
  8
SUNPO
  6
CONTINUOUS
 10
251.415322
 20
254.30112
 30
0.0
 40
2.5
  1
100
  7
MX_NOTE_STANDARD
  0
LINE
  5
ABCF
  8
SUNPO
  6
BYBLOCK
 10
303.915322
 20
244.27436700000001
 30
0.0
 11
303.915322
 21
253.80112
 31
0.0
  0
ARC
  5
ABD0
  8
SUNPO
  6
BYBLOCK
 10
303.915322
 20
253.80112
 30
0.0
 40
0.145
 50
180.0
 51
0.0
  0
ARC
  5
ABD1
  8
SUNPO
  6
BYBLOCK
 10
303.915322
 20
253.80112
 30
0.0
 40
0.145
 50
0.0
 51
180.0
  0
ARC
  5
ABD2
  8
SUNPO
  6
BYBLOCK
 10
303.915322
 20
253.80112
 30
0.0
 40
0.145
 50
0.0
 51
180.0
  0
ARC
  5
ABD3
  8
SUNPO
  6
BYBLOCK
 10
303.915322
 20
253.80112
 30
0.0
 40
0.145
 50
180.0
 51
0.0
  0
LINE
  5
ABD5
  8
SUNPO
  6
BYBLOCK
 10
347.484217
 20
210.0352399999999
 30
0.0
 11
347.484217
 21
273.53523999999999
 31
0.0
  0
LINE
  5
ABD6
  8
SUNPO
  6
CONTINUOUS
 10
333.915322
 20
271.17628499999989
 30
0.0
 11
333.915322
 21
265.67628500000001
 31
0.0
  0
LINE
  5
ABD7
  8
SUNPO
  6
CONTINUOUS
 10
328.915322
 20
221.5352399999999
 30
0.0
 11
338.915322
 21
221.5352399999999
 31
0.0
  0
TEXT
  5
ABD8
  8
SUNPO
  6
CONTINUOUS
 10
323.415322
 20
238.45190600000001
 30
0.0
 40
2.5
  1
48
 50
90.0
  7
MX_NOTE_STANDARD
  0
LINE
  5
ABDA
  8
SUNPO
  6
BYBLOCK
 10
310.215326
 20
264.53523899999988
 30
0.0
 11
323.91532199999989
 21
264.53523899999988
 31
0.0
  0
TEXT
  5
ABDB
  8
SUNPO
  6
CONTINUOUS
 10
312.61747200000002
 20
254.30112
 30
0.0
 40
2.5
  1
7
  7
MX_NOTE_STANDARD
  0
LINE
  5
ABDC
  8
SUNPO
  6
BYBLOCK
 10
310.91531900000001
 20
253.80112
 30
0.0
 11
314.700806
 21
253.80112
 31
0.0
  0
ARC
  5
ABDF
  8
SUNPO
  6
BYBLOCK
 10
310.91531900000001
 20
253.80112
 30
0.0
 40
0.145
 50
180.0
 51
0.0
  0
ARC
  5
ABE0
  8
SUNPO
  6
BYBLOCK
 10
310.91531900000001
 20
253.80112
 30
0.0
 40
0.145
 50
0.0
 51
180.0
  0
LINE
  5
ABE2
  8
SUNPO
  6
CONTINUOUS
 10
329.91532199999989
 20
265.67628500000001
 30
0.0
 11
337.915322
 21
265.67628500000001
 31
0.0
  0
LINE
  5
ABE3
  8
SUNPO
  6
CONTINUOUS
 10
329.91532199999989
 20
263.67628500000001
 30
0.0
 11
337.915322
 21
263.67628500000001
 31
0.0
  0
ARC
  5
ABE4
  8
SUNPO
  6
BYBLOCK
 10
323.91532199999989
 20
264.53523899999988
 30
0.0
 40
0.145
 50
270.0
 51
90.0
  0
ARC
  5
ABE5
  8
SUNPO
  6
BYBLOCK
 10
323.91532199999989
 20
264.53523899999988
 30
0.0
 40
0.145
 50
90.0
 51
270.0
  0
LINE
  5
ABE6
  8
SUNPO
  6
CONTINUOUS
 10
329.91532199999989
 20
267.07627899999989
 30
0.0
 11
329.91532199999989
 21
261.87893600000001
 31
0.0
  0
LINE
  5
ABE7
  8
SUNPO
  6
CONTINUOUS
 10
337.915322
 20
267.07627899999989
 30
0.0
 11
337.915322
 21
261.87893600000001
 31
0.0
  0
LINE
  5
ABEB
  8
SUNPO
  6
BYBLOCK
 10
310.21532200000001
 20
276.53523999999987
 30
0.0
 11
323.91532199999989
 21
276.53523999999987
 31
0.0
  0
LINE
  5
ABED
  8
SUNPO
  6
CONTINUOUS
 10
332.71524899999997
 20
279.19154400000002
 30
0.0
 11
332.71524899999997
 21
274.4030009999999
 31
0.0
  0
LINE
  5
ABEE
  8
SUNPO
  6
CONTINUOUS
 10
335.11524300000002
 20
279.19154400000002
 30
0.0
 11
335.11524300000002
 21
274.4030009999999
 31
0.0
  0
LINE
  5
ABEF
  8
SUNPO
  6
CONTINUOUS
 10
329.91532199999989
 20
271.17628499999989
 30
0.0
 11
337.915322
 21
271.17628499999989
 31
0.0
  0
LINE
  5
ABF0
  8
SUNPO
  6
CONTINUOUS
 10
329.91532199999989
 20
273.18923100000001
 30
0.0
 11
329.91532199999989
 21
269.45618399999989
 31
0.0
  0
ARC
  5
ABF2
  8
SUNPO
  6
BYBLOCK
 10
323.91532199999989
 20
276.53523999999987
 30
0.0
 40
0.145
 50
90.0
 51
270.0
  0
ARC
  5
ABF3
  8
SUNPO
  6
BYBLOCK
 10
323.91532199999989
 20
276.53523999999987
 30
0.0
 40
0.145
 50
270.0
 51
90.0
  0
LINE
  5
ABF4
  8
SUNPO
  6
CONTINUOUS
 10
337.915322
 20
273.18923100000001
 30
0.0
 11
337.915322
 21
269.45618399999989
 31
0.0
  0
TEXT
  5
ABF6
  8
SUNPO
  6
CONTINUOUS
 10
323.415322
 20
298.45190700000001
 30
0.0
 40
2.5
  1
48
 50
90.0
  7
MX_NOTE_STANDARD
  0
LINE
  5
ABF7
  8
SUNPO
  6
BYBLOCK
 10
357.484217
 20
265.03523999999999
 30
0.0
 11
357.484217
 21
273.53523999999999
 31
0.0
  0
LINE
  5
ABF8
  8
SUNPO
  6
BYBLOCK
 10
357.484217
 20
265.03523999999999
 30
0.0
 11
357.484217
 21
273.53523999999999
 31
0.0
  0
LINE
  5
ABFB
  8
SUNPO
  6
BYBLOCK
 10
347.484217
 20
273.53523999999999
 30
0.0
 11
357.484217
 21
273.53523999999999
 31
0.0
  0
TEXT
  5
ABFC
  8
SUNPO
  6
CONTINUOUS
 10
351.02588300000002
 20
274.03523999999987
 30
0.0
 40
2.5
  1
10
  7
MX_NOTE_STANDARD
  0
ARC
  5
ABFD
  8
SUNPO
  6
BYBLOCK
 10
347.484217
 20
273.53523999999999
 30
0.0
 40
0.145
 50
0.0
 51
180.0
  0
ARC
  5
ABFE
  8
SUNPO
  6
BYBLOCK
 10
347.484217
 20
273.53523999999999
 30
0.0
 40
0.145
 50
180.0
 51
0.0
  0
ARC
  5
AC00
  8
SUNPO
  6
BYBLOCK
 10
357.484217
 20
273.53523999999999
 30
0.0
 40
0.145
 50
0.0
 51
180.0
  0
ARC
  5
AC01
  8
SUNPO
  6
BYBLOCK
 10
357.484217
 20
273.53523999999999
 30
0.0
 40
0.145
 50
180.0
 51
0.0
  0
ARC
  5
AC02
  8
SUNPO
  6
BYBLOCK
 10
357.484217
 20
273.53523999999999
 30
0.0
 40
0.145
 50
180.0
 51
0.0
  0
ARC
  5
AC03
  8
SUNPO
  6
BYBLOCK
 10
357.484217
 20
273.53523999999999
 30
0.0
 40
0.145
 50
0.0
 51
180.0
  0
LINE
  5
AC04
  8
SUNPO
  6
BYBLOCK
 10
257.41532199999989
 20
364.53524099999998
 30
0.0
 11
193.915322
 21
364.53524099999998
 31
0.0
  0
LINE
  5
AC05
  8
SUNPO
  6
BYBLOCK
 10
257.41532199999989
 20
374.53524499999997
 30
0.0
 11
193.915322
 21
374.53524499999997
 31
0.0
  0
LINE
  5
AC06
  8
SUNPO
  6
BYBLOCK
 10
257.41532199999989
 20
364.53524099999998
 30
0.0
 11
193.915322
 21
364.53524099999998
 31
0.0
  0
LINE
  5
AC07
  8
SUNPO
  6
BYBLOCK
 10
193.915322
 20
359.53523999999987
 30
0.0
 11
193.915322
 21
364.53524099999998
 31
0.0
  0
LINE
  5
AC08
  8
SUNPO
  6
BYBLOCK
 10
193.915322
 20
324.53523999999987
 30
0.0
 11
193.915322
 21
359.53523999999987
 31
0.0
  0
LINE
  5
AC09
  8
SUNPO
  6
BYBLOCK
 10
202.415322
 20
324.53523999999987
 30
0.0
 11
193.915322
 21
324.53523999999987
 31
0.0
  0
ARC
  5
AC0A
  8
SUNPO
  6
BYBLOCK
 10
193.915322
 20
324.53523999999987
 30
0.0
 40
0.145
 50
90.0
 51
270.0
  0
ARC
  5
AC0B
  8
SUNPO
  6
BYBLOCK
 10
193.915322
 20
324.53523999999987
 30
0.0
 40
0.145
 50
270.0
 51
90.0
  0
TEXT
  5
AC0D
  8
SUNPO
  6
CONTINUOUS
 10
193.41532199999989
 20
339.95190700000001
 30
0.0
 40
2.5
  1
35
 50
90.0
  7
MX_NOTE_STANDARD
  0
LINE
  5
AC0E
  8
SUNPO
  6
BYBLOCK
 10
202.415322
 20
359.53523999999987
 30
0.0
 11
193.915322
 21
359.53523999999987
 31
0.0
  0
LINE
  5
AC0F
  8
SUNPO
  6
BYBLOCK
 10
202.415322
 20
359.53523999999987
 30
0.0
 11
193.915322
 21
359.53523999999987
 31
0.0
  0
ARC
  5
AC11
  8
SUNPO
  6
BYBLOCK
 10
193.915322
 20
359.53523999999987
 30
0.0
 40
0.145
 50
90.0
 51
270.0
  0
ARC
  5
AC12
  8
SUNPO
  6
BYBLOCK
 10
193.915322
 20
359.53523999999987
 30
0.0
 40
0.145
 50
270.0
 51
90.0
  0
ARC
  5
AC13
  8
SUNPO
  6
BYBLOCK
 10
193.915322
 20
359.53523999999987
 30
0.0
 40
0.145
 50
270.0
 51
90.0
  0
ARC
  5
AC14
  8
SUNPO
  6
BYBLOCK
 10
193.915322
 20
359.53523999999987
 30
0.0
 40
0.145
 50
90.0
 51
270.0
  0
LINE
  5
AC17
  8
SUNPO
  6
BYBLOCK
 10
193.915322
 20
364.53524099999998
 30
0.0
 11
193.915322
 21
374.53524499999997
 31
0.0
  0
TEXT
  5
AC19
  8
SUNPO
  6
CONTINUOUS
 10
193.41532199999989
 20
361.201908
 30
0.0
 40
2.5
  1
5
 50
90.0
  7
MX_NOTE_STANDARD
  0
ARC
  5
AC1A
  8
SUNPO
  6
BYBLOCK
 10
193.915322
 20
364.53524099999998
 30
0.0
 40
0.145
 50
90.0
 51
270.0
  0
ARC
  5
AC1B
  8
SUNPO
  6
BYBLOCK
 10
193.915322
 20
364.53524099999998
 30
0.0
 40
0.145
 50
270.0
 51
90.0
  0
ARC
  5
AC1C
  8
SUNPO
  6
BYBLOCK
 10
193.915322
 20
364.53524099999998
 30
0.0
 40
0.145
 50
270.0
 51
90.0
  0
ARC
  5
AC1D
  8
SUNPO
  6
BYBLOCK
 10
193.915322
 20
364.53524099999998
 30
0.0
 40
0.145
 50
90.0
 51
270.0
  0
TEXT
  5
AC1E
  8
SUNPO
  6
CONTINUOUS
 10
193.41532199999989
 20
368.07691
 30
0.0
 40
2.5
  1
10
 50
90.0
  7
MX_NOTE_STANDARD
  0
ARC
  5
AC20
  8
SUNPO
  6
BYBLOCK
 10
193.915322
 20
374.53524499999997
 30
0.0
 40
0.145
 50
270.0
 51
90.0
  0
ARC
  5
AC21
  8
SUNPO
  6
BYBLOCK
 10
193.915322
 20
374.53524499999997
 30
0.0
 40
0.145
 50
90.0
 51
270.0
  0
LINE
  5
AC22
  8
SUNPO
  6
BYBLOCK
 10
305.41532199999989
 20
324.53523999999987
 30
0.0
 11
323.91532199999989
 21
324.53523999999987
 31
0.0
  0
LINE
  5
AC23
  8
SUNPO
  6
BYBLOCK
 10
305.41532199999989
 20
374.53524499999997
 30
0.0
 11
333.915322
 21
374.53524499999997
 31
0.0
  0
LINE
  5
AC24
  8
SUNPO
  6
BYBLOCK
 10
305.41532199999989
 20
364.53523999999999
 30
0.0
 11
333.915322
 21
364.53523999999999
 31
0.0
  0
LINE
  5
AC25
  8
SUNPO
  6
BYBLOCK
 10
305.41532199999989
 20
364.53523999999999
 30
0.0
 11
333.915322
 21
364.53523999999999
 31
0.0
  0
LINE
  5
AC26
  8
SUNPO
  6
BYBLOCK
 10
305.41532199999989
 20
324.53523999999987
 30
0.0
 11
333.915322
 21
324.53523999999987
 31
0.0
  0
LINE
  5
AC2F
  8
SUNPO
  6
BYBLOCK
 10
333.915322
 20
364.53523999999999
 30
0.0
 11
333.915322
 21
324.53523999999987
 31
0.0
  0
LINE
  5
AC30
  8
SUNPO
  6
CONTINUOUS
 10
333.915322
 20
324.53523999999987
 30
0.0
 11
338.915322
 21
319.53523999999987
 31
0.0
  0
LINE
  5
AC31
  8
SUNPO
  6
CONTINUOUS
 10
338.915322
 20
319.53523999999987
 30
0.0
 11
328.915322
 21
319.53523999999987
 31
0.0
  0
LINE
  5
AC32
  8
SUNPO
  6
CONTINUOUS
 10
328.915322
 20
319.53523999999987
 30
0.0
 11
333.915322
 21
324.53523999999987
 31
0.0
  0
ARC
  5
AC33
  8
SUNPO
  6
BYBLOCK
 10
323.91532199999989
 20
324.53523999999987
 30
0.0
 40
0.145
 50
270.0
 51
90.0
  0
ARC
  5
AC34
  8
SUNPO
  6
BYBLOCK
 10
323.91532199999989
 20
324.53523999999987
 30
0.0
 40
0.145
 50
90.0
 51
270.0
  0
TEXT
  5
AC38
  8
SUNPO
  6
CONTINUOUS
 10
333.415322
 20
342.66023999999999
 30
0.0
 40
2.5
  1
40
 50
90.0
  7
MX_NOTE_STANDARD
  0
LINE
  5
AC3A
  8
SUNPO
  6
BYBLOCK
 10
333.915322
 20
374.53524499999997
 30
0.0
 11
333.915322
 21
364.53523999999999
 31
0.0
  0
ARC
  5
AC3C
  8
SUNPO
  6
BYBLOCK
 10
333.915322
 20
364.53523999999999
 30
0.0
 40
0.145
 50
90.0
 51
270.0
  0
ARC
  5
AC3D
  8
SUNPO
  6
BYBLOCK
 10
333.915322
 20
364.53523999999999
 30
0.0
 40
0.145
 50
270.0
 51
90.0
  0
ARC
  5
AC3E
  8
SUNPO
  6
BYBLOCK
 10
333.915322
 20
364.53523999999999
 30
0.0
 40
0.145
 50
270.0
 51
90.0
  0
ARC
  5
AC3F
  8
SUNPO
  6
BYBLOCK
 10
333.915322
 20
364.53523999999999
 30
0.0
 40
0.145
 50
90.0
 51
270.0
  0
TEXT
  5
AC40
  8
SUNPO
  6
CONTINUOUS
 10
333.415322
 20
368.07691
 30
0.0
 40
2.5
  1
10
 50
90.0
  7
MX_NOTE_STANDARD
  0
ARC
  5
AC41
  8
SUNPO
  6
BYBLOCK
 10
333.915322
 20
374.53524499999997
 30
0.0
 40
0.145
 50
270.0
 51
90.0
  0
ARC
  5
AC42
  8
SUNPO
  6
BYBLOCK
 10
333.915322
 20
374.53524499999997
 30
0.0
 40
0.145
 50
90.0
 51
270.0
  0
LINE
  5
AC43
  8
DANMEN
  6
CONTINUOUS
 10
372.484217
 20
242.03523999999999
 30
0.0
 11
372.484217
 21
213.1352399999999
 31
0.0
  0
LINE
  5
AC44
  8
DANMEN
  6
CONTINUOUS
 10
529.48421699999994
 20
262.43523999999991
 30
0.0
 11
529.48421699999994
 21
164.6352399999999
 31
0.0
  0
LINE
  5
AC45
  8
DANMEN
  6
CONTINUOUS
 10
544.48421699999994
 20
263.03523999999999
 30
0.0
 11
544.48421699999994
 21
208.53523999999999
 31
0.0
  0
LINE
  5
AC46
  8
DANMEN
  6
CONTINUOUS
 10
542.83421699999985
 20
261.88524000000001
 30
0.0
 11
542.83421699999985
 21
208.53523999999999
 31
0.0
  0
LINE
  5
AC47
  8
DANMEN
  6
CONTINUOUS
 10
531.48421699999994
 20
261.88524000000001
 30
0.0
 11
531.48421699999994
 21
211.5352399999999
 31
0.0
  0
LINE
  5
AC48
  8
DANMEN
  6
CONTINUOUS
 10
374.51002999999992
 20
222.870824
 30
0.0
 11
377.284221
 21
216.33523999999991
 31
0.0
  0
ARC
  5
AC49
  8
DANMEN
  6
CONTINUOUS
 10
373.95772699999992
 20
222.6363859999999
 30
0.0
 40
0.6
 50
23.0
 51
273.52877899999999
  0
LINE
  5
AC4A
  8
DANMEN
  6
CONTINUOUS
 10
452.484217
 20
215.5352399999999
 30
0.0
 11
529.48421699999994
 21
215.5352399999999
 31
0.0
  0
LINE
  5
AC4C
  8
DANMEN
  6
CONTINUOUS
 10
513.48421699999994
 20
156.5352399999999
 30
0.0
 11
480.984217
 21
156.5352399999999
 31
0.0
  0
LINE
  5
AC4D
  8
DANMEN
  6
CONTINUOUS
 10
512.48421699999994
 20
158.18523999999999
 30
0.0
 11
494.484217
 21
158.18523999999999
 31
0.0
  0
LINE
  5
AC4E
  8
DANMEN
  6
CONTINUOUS
 10
480.984217
 20
208.5352419999999
 30
0.0
 11
503.984217
 21
208.5352419999999
 31
0.0
  0
ARC
  5
AC4F
  8
DANMEN
  6
CONTINUOUS
 10
503.68421699999988
 20
205.235242
 30
0.0
 40
1.0
 50
180.0
 51
270.0
  0
ARC
  5
AC50
  8
DANMEN
  6
CONTINUOUS
 10
502.18421699999999
 20
206.08524199999991
 30
0.0
 40
0.5
 50
0.0
 51
90.0
  0
LINE
  5
AC51
  8
DANMEN
  6
CONTINUOUS
 10
372.484217
 20
208.53523999999999
 30
0.0
 11
449.484217
 21
208.53523999999999
 31
0.0
  0
LINE
  5
AC52
  8
DANMEN
  6
CONTINUOUS
 10
372.484217
 20
173.3852399999999
 30
0.0
 11
449.484217
 21
173.3852399999999
 31
0.0
  0
LINE
  5
AC53
  8
DANMEN
  6
CONTINUOUS
 10
372.484217
 20
165.33523999999991
 30
0.0
 11
449.484217
 21
165.33523999999991
 31
0.0
  0
LINE
  5
AC54
  8
DANMEN
  6
CONTINUOUS
 10
372.484217
 20
175.735243
 30
0.0
 11
449.484217
 21
175.735243
 31
0.0
  0
LINE
  5
AC55
  8
DANMEN
  6
CONTINUOUS
 10
384.984217
 20
215.5352399999999
 30
0.0
 11
449.484217
 21
215.5352399999999
 31
0.0
  0
LINE
  5
AC56
  8
DANMEN
  6
CONTINUOUS
 10
386.984217
 20
163.5352399999999
 30
0.0
 11
449.484217
 21
163.5352399999999
 31
0.0
  0
LINE
  5
AC57
  8
DANMEN
  6
CONTINUOUS
 10
372.484217
 20
212.0352399999999
 30
0.0
 11
372.484217
 21
164.6352399999999
 31
0.0
  0
LINE
  5
AC58
  8
DANMEN
  6
CONTINUOUS
 10
387.48421699999989
 20
164.68523999999999
 30
0.0
 11
387.48421699999989
 21
164.0352399999999
 31
0.0
  0
ARC
  5
AC59
  8
DANMEN
  6
CONTINUOUS
 10
386.984217
 20
164.0352399999999
 30
0.0
 40
0.5
 50
270.0
 51
0.0
  0
LINE
  5
AC5C
  8
DANMEN
  6
CONTINUOUS
 10
374.484217
 20
165.18523999999991
 30
0.0
 11
386.984217
 21
165.18523999999991
 31
0.0
  0
LINE
  5
AC5D
  8
DANMEN
  6
CONTINUOUS
 10
372.484217
 20
164.6352399999999
 30
0.0
 11
374.484217
 21
164.6352399999999
 31
0.0
  0
LINE
  5
AC5E
  8
DANMEN
  6
CONTINUOUS
 10
374.484217
 20
165.18523999999991
 30
0.0
 11
374.484217
 21
164.6352399999999
 31
0.0
  0
ARC
  5
AC62
  8
DANMEN
  6
CONTINUOUS
 10
386.984217
 20
164.68523999999999
 30
0.0
 40
0.5
 50
0.0
 51
90.0
  0
LINE
  5
AC64
  8
DANMEN
  6
CONTINUOUS
 10
385.48421699999989
 20
175.735243
 30
0.0
 11
385.48421699999989
 21
215.5352399999999
 31
0.0
  0
LINE
  5
AC65
  8
DANMEN
  6
CONTINUOUS
 10
372.484217
 20
212.0352399999999
 30
0.0
 11
384.984217
 21
212.0352399999999
 31
0.0
  0
LINE
  5
AC66
  8
DANMEN
  6
CONTINUOUS
 10
378.484217
 20
214.73523999999989
 30
0.0
 11
379.68421699999999
 21
214.73523999999989
 31
0.0
  0
ARC
  5
AC67
  8
DANMEN
  6
CONTINUOUS
 10
379.18421699999988
 20
215.03523999999999
 30
0.0
 40
0.5
 50
0.0
 51
90.0
  0
LINE
  5
AC68
  8
DANMEN
  6
CONTINUOUS
 10
378.484217
 20
213.1352399999999
 30
0.0
 11
384.484217
 21
213.1352399999999
 31
0.0
  0
ARC
  5
AC69
  8
DANMEN
  6
CONTINUOUS
 10
379.797191
 20
216.48512599999989
 30
0.0
 40
0.25
 50
131.73810499999999
 51
311.7381049999999
  0
LINE
  5
AC6A
  8
DANMEN
  6
CONTINUOUS
 10
378.83422000000002
 20
214.5352399999999
 30
0.0
 11
379.83422100000001
 21
214.5352399999999
 31
0.0
  0
LINE
  5
AC6B
  8
DANMEN
  6
CONTINUOUS
 10
378.83422000000002
 20
213.5352399999999
 30
0.0
 11
379.83422100000001
 21
213.5352399999999
 31
0.0
  0
LINE
  5
AC6C
  8
DANMEN
  6
CONTINUOUS
 10
376.75471299999998
 20
215.5352399999999
 30
0.0
 11
379.83422100000001
 21
215.5352399999999
 31
0.0
  0
LINE
  5
AC6D
  8
DANMEN
  6
CONTINUOUS
 10
377.284221
 20
216.33523999999991
 30
0.0
 11
384.68422099999992
 21
216.33523999999991
 31
0.0
  0
LINE
  5
AC6E
  8
DANMEN
  6
CONTINUOUS
 10
373.9946569999999
 20
222.03752299999999
 30
0.0
 11
376.75471299999998
 21
215.5352399999999
 31
0.0
  0
LINE
  5
AC6F
  8
DANMEN
  6
CONTINUOUS
 10
372.484217
 20
215.5352399999999
 30
0.0
 11
377.984217
 21
215.5352399999999
 31
0.0
  0
LINE
  5
AC70
  8
DANMEN
  6
CONTINUOUS
 10
372.484217
 20
213.1352399999999
 30
0.0
 11
377.48421699999989
 21
213.1352399999999
 31
0.0
  0
LINE
  5
AC74
  8
DANMEN
  6
CONTINUOUS
 10
377.984217
 20
215.5352399999999
 30
0.0
 11
379.18421699999988
 21
215.5352399999999
 31
0.0
  0
LINE
  5
AC75
  8
DANMEN
  6
CONTINUOUS
 10
377.48421699999989
 20
215.03523999999999
 30
0.0
 11
377.48421699999989
 21
213.1352399999999
 31
0.0
  0
ARC
  5
AC76
  8
DANMEN
  6
CONTINUOUS
 10
377.984217
 20
215.03523999999999
 30
0.0
 40
0.5
 50
90.0
 51
180.0
  0
LINE
  5
AC79
  8
DANMEN
  6
CONTINUOUS
 10
378.484217
 20
214.73523999999989
 30
0.0
 11
378.484217
 21
213.1352399999999
 31
0.0
  0
LINE
  5
AC7D
  8
DANMEN
  6
CONTINUOUS
 10
378.63422099999991
 20
214.33523999999991
 30
0.0
 11
378.63422099999991
 21
213.73524
 31
0.0
  0
ARC
  5
AC7F
  8
DANMEN
  6
CONTINUOUS
 10
378.83422000000002
 20
213.73524
 30
0.0
 40
0.2
 50
180.0000189999999
 51
270.000001
  0
ARC
  5
AC81
  8
DANMEN
  6
CONTINUOUS
 10
378.83422000000002
 20
214.33523999999991
 30
0.0
 40
0.2
 50
89.999981999999974
 51
180.0000189999999
  0
LINE
  5
AC86
  8
DANMEN
  6
CONTINUOUS
 10
381.81988599999988
 20
217.9546629999999
 30
0.0
 11
379.96362299999993
 21
216.29857699999999
 31
0.0
  0
LINE
  5
AC87
  8
DANMEN
  6
CONTINUOUS
 10
385.48422099999999
 20
217.2797459999999
 30
0.0
 11
385.48422099999999
 21
215.5352399999999
 31
0.0
  0
LINE
  5
AC88
  8
DANMEN
  6
CONTINUOUS
 10
383.28421700000001
 20
214.73523999999989
 30
0.0
 11
384.484217
 21
214.73523999999989
 31
0.0
  0
ARC
  5
AC89
  8
DANMEN
  6
CONTINUOUS
 10
383.78421700000001
 20
215.03523999999999
 30
0.0
 40
0.5
 50
90.0
 51
180.0
  0
LINE
  5
AC8A
  8
DANMEN
  6
CONTINUOUS
 10
383.13422099999991
 20
213.5352399999999
 30
0.0
 11
384.13422200000002
 21
213.5352399999999
 31
0.0
  0
LINE
  5
AC8B
  8
DANMEN
  6
CONTINUOUS
 10
383.13422099999991
 20
214.5352399999999
 30
0.0
 11
384.13422200000002
 21
214.5352399999999
 31
0.0
  0
LINE
  5
AC8C
  8
DANMEN
  6
CONTINUOUS
 10
383.13422099999991
 20
215.5352399999999
 30
0.0
 11
385.48422099999999
 21
215.5352399999999
 31
0.0
  0
LINE
  5
AC8D
  8
DANMEN
  6
CONTINUOUS
 10
379.68421699999999
 20
215.03523999999999
 30
0.0
 11
379.68421699999999
 21
214.73523999999989
 31
0.0
  0
LINE
  5
AC8E
  8
DANMEN
  6
CONTINUOUS
 10
383.28421700000001
 20
215.03523999999999
 30
0.0
 11
383.28421700000001
 21
214.73523999999989
 31
0.0
  0
LINE
  5
AC97
  8
DANMEN
  6
CONTINUOUS
 10
382.33422100000001
 20
214.33523999999991
 30
0.0
 11
383.13422099999991
 21
213.5352399999999
 31
0.0
  0
LINE
  5
AC98
  8
DANMEN
  6
CONTINUOUS
 10
380.63422100000003
 20
214.33523999999991
 30
0.0
 11
379.83422100000001
 21
213.5352399999999
 31
0.0
  0
LINE
  5
AC9B
  8
DANMEN
  6
CONTINUOUS
 10
379.83422100000001
 20
215.5352399999999
 30
0.0
 11
379.83422100000001
 21
214.5352399999999
 31
0.0
  0
LINE
  5
AC9C
  8
DANMEN
  6
CONTINUOUS
 10
383.13422099999991
 20
215.5352399999999
 30
0.0
 11
383.13422099999991
 21
214.5352399999999
 31
0.0
  0
LINE
  5
ACA1
  8
DANMEN
  6
CONTINUOUS
 10
380.63422200000002
 20
214.33523999999991
 30
0.0
 11
382.33422000000002
 21
214.33523999999991
 31
0.0
  0
LINE
  5
ACA4
  8
DANMEN
  6
CONTINUOUS
 10
385.48421699999989
 20
215.03523999999999
 30
0.0
 11
385.48421699999989
 21
212.5352399999999
 31
0.0
  0
ARC
  5
ACA5
  8
DANMEN
  6
CONTINUOUS
 10
384.984217
 20
215.03523999999999
 30
0.0
 40
0.5
 50
0.0
 51
90.0
  0
ARC
  5
ACA7
  8
DANMEN
  6
CONTINUOUS
 10
384.984217
 20
212.5352399999999
 30
0.0
 40
0.5
 50
270.0
 51
0.0
  0
LINE
  5
ACA9
  8
DANMEN
  6
CONTINUOUS
 10
383.78421700000001
 20
215.5352399999999
 30
0.0
 11
384.984217
 21
215.5352399999999
 31
0.0
  0
LINE
  5
ACAA
  8
DANMEN
  6
CONTINUOUS
 10
384.484217
 20
214.73523999999989
 30
0.0
 11
384.484217
 21
213.1352399999999
 31
0.0
  0
LINE
  5
ACAD
  8
DANMEN
  6
CONTINUOUS
 10
384.33422100000001
 20
214.33523999999991
 30
0.0
 11
384.33422100000001
 21
213.73524
 31
0.0
  0
ARC
  5
ACAF
  8
DANMEN
  6
CONTINUOUS
 10
384.13422200000002
 20
214.33523999999991
 30
0.0
 40
0.2
 50
0.0
 51
89.999981999999974
  0
ARC
  5
ACB1
  8
DANMEN
  6
CONTINUOUS
 10
384.13422200000002
 20
213.73524
 30
0.0
 40
0.2
 50
270.0000179999999
 51
0.0
  0
LINE
  5
ACB5
  8
DANMEN
  6
CONTINUOUS
 10
384.36307900000003
 20
216.92581299999989
 30
0.0
 11
381.81988599999988
 21
217.9546629999999
 31
0.0
  0
LINE
  5
ACB6
  8
DANMEN
  6
CONTINUOUS
 10
385.37937999999991
 20
217.37765300000001
 30
0.0
 11
380.731065
 21
219.25813099999999
 31
0.0
  0
ARC
  5
ACBA
  8
DANMEN
  6
CONTINUOUS
 10
380.93006700000001
 20
218.098893
 30
0.0
 40
0.2
 50
311.7381049999999
 51
67.974191000000005
  0
LINE
  5
ACBB
  8
DANMEN
  6
CONTINUOUS
 10
381.00507199999998
 20
218.2842959999999
 30
0.0
 11
380.43104599999992
 21
218.5165189999999
 31
0.0
  0
LINE
  5
ACBE
  8
DANMEN
  6
CONTINUOUS
 10
381.06321200000002
 20
217.94965400000001
 30
0.0
 11
379.63076000000001
 21
216.67167499999991
 31
0.0
  0
ARC
  5
ACC0
  8
DANMEN
  6
CONTINUOUS
 10
380.58105499999988
 20
218.88732499999989
 30
0.0
 40
0.4
 50
67.974191000000005
 51
247.97419099999991
  0
ARC
  5
ACC2
  8
DANMEN
  6
CONTINUOUS
 10
385.30437499999988
 20
217.19224999999989
 30
0.0
 40
0.2
 50
25.943161
 51
67.974191000000005
  0
ARC
  5
ACC5
  8
DANMEN
  6
CONTINUOUS
 10
384.54848199999992
 20
216.850808
 30
0.0
 40
0.2
 50
47.258366000000002
 51
157.97419099999991
  0
LINE
  5
ACC6
  8
DANMEN
  6
CONTINUOUS
 10
384.68422099999992
 20
216.997693
 30
0.0
 11
384.68422099999992
 21
216.33523999999991
 31
0.0
  0
LINE
  5
ACC8
  8
DANMEN
  6
CONTINUOUS
 10
452.484217
 20
156.5352399999999
 30
0.0
 11
480.48421699999989
 21
156.5352399999999
 31
0.0
  0
LINE
  5
ACC9
  8
DANMEN
  6
CONTINUOUS
 10
493.484217
 20
158.18523999999999
 30
0.0
 11
481.68421699999999
 21
158.18523999999999
 31
0.0
  0
LINE
  5
ACCA
  8
DANMEN
  6
CONTINUOUS
 10
482.13421699999998
 20
162.235243
 30
0.0
 11
486.984217
 21
162.235243
 31
0.0
  0
LINE
  5
ACCB
  8
DANMEN
  6
CONTINUOUS
 10
480.984218
 20
163.4352429999999
 30
0.0
 11
487.48421699999989
 21
163.4352429999999
 31
0.0
  0
LINE
  5
ACCC
  8
DANMEN
  6
CONTINUOUS
 10
481.68421699999999
 20
158.1852429999999
 30
0.0
 11
481.68421699999999
 21
160.1852429999999
 31
0.0
  0
LINE
  5
ACCD
  8
DANMEN
  6
CONTINUOUS
 10
480.48421699999989
 20
157.0352399999999
 30
0.0
 11
480.48421699999989
 21
162.9352429999999
 31
0.0
  0
ARC
  5
ACCF
  8
DANMEN
  6
CONTINUOUS
 10
480.984217
 20
157.0352399999999
 30
0.0
 40
0.5
 50
179.999999
 51
269.99998099999999
  0
LINE
  5
ACD2
  8
DANMEN
  6
CONTINUOUS
 10
481.68421699999999
 20
160.1852429999999
 30
0.0
 11
482.13421699999998
 21
160.1852429999999
 31
0.0
  0
ARC
  5
ACD4
  8
DANMEN
  6
CONTINUOUS
 10
480.984217
 20
162.9352429999999
 30
0.0
 40
0.5
 50
90.0
 51
179.99998199999999
  0
LINE
  5
ACD8
  8
DANMEN
  6
CONTINUOUS
 10
482.13421699999998
 20
160.1852429999999
 30
0.0
 11
482.13421699999998
 21
162.235243
 31
0.0
  0
ARC
  5
ACD9
  8
DANMEN
  6
CONTINUOUS
 10
493.984217
 20
162.9352429999999
 30
0.0
 40
0.5
 50
0.0
 51
180.0
  0
LINE
  5
ACDA
  8
DANMEN
  6
CONTINUOUS
 10
493.484217
 20
158.18523999999999
 30
0.0
 11
493.484217
 21
162.9352429999999
 31
0.0
  0
ARC
  5
ACDD
  8
DANMEN
  6
CONTINUOUS
 10
486.984217
 20
162.735243
 30
0.0
 40
0.5
 50
270.0
 51
0.0
  0
LINE
  5
ACDF
  8
DANMEN
  6
CONTINUOUS
 10
487.48421699999989
 20
162.735243
 30
0.0
 11
487.48421699999989
 21
163.4352429999999
 31
0.0
  0
LINE
  5
ACE1
  8
DANMEN
  6
CONTINUOUS
 10
494.484217
 20
158.18523999999999
 30
0.0
 11
494.484217
 21
162.9352429999999
 31
0.0
  0
LINE
  5
ACE4
  8
DANMEN
  6
CONTINUOUS
 10
452.484217
 20
208.53524400000001
 30
0.0
 11
480.48421699999989
 21
208.53524400000001
 31
0.0
  0
LINE
  5
ACE5
  8
DANMEN
  6
CONTINUOUS
 10
480.984217
 20
201.4352419999999
 30
0.0
 11
487.48421699999989
 21
201.4352419999999
 31
0.0
  0
LINE
  5
ACE6
  8
DANMEN
  6
CONTINUOUS
 10
482.43421699999999
 20
206.58524199999999
 30
0.0
 11
493.484217
 21
206.58524199999999
 31
0.0
  0
LINE
  5
ACE7
  8
DANMEN
  6
CONTINUOUS
 10
482.43421699999999
 20
202.63524200000001
 30
0.0
 11
486.984217
 21
202.63524200000001
 31
0.0
  0
LINE
  5
ACE8
  8
DANMEN
  6
CONTINUOUS
 10
480.48421699999989
 20
208.0352419999999
 30
0.0
 11
480.48421699999989
 21
201.9352419999999
 31
0.0
  0
LINE
  5
ACE9
  8
DANMEN
  6
CONTINUOUS
 10
482.43421699999999
 20
206.58524199999999
 30
0.0
 11
482.43421699999999
 21
202.63524200000001
 31
0.0
  0
ARC
  5
ACEA
  8
DANMEN
  6
CONTINUOUS
 10
480.984217
 20
201.9352419999999
 30
0.0
 40
0.5
 50
180.0
 51
270.0
  0
ARC
  5
ACF0
  8
DANMEN
  6
CONTINUOUS
 10
480.984217
 20
208.0352419999999
 30
0.0
 40
0.5
 50
90.0
 51
180.0
  0
ARC
  5
ACF3
  8
DANMEN
  6
CONTINUOUS
 10
493.984217
 20
201.9352419999999
 30
0.0
 40
0.5
 50
180.0
 51
0.0
  0
LINE
  5
ACF4
  8
DANMEN
  6
CONTINUOUS
 10
493.484217
 20
206.58524199999999
 30
0.0
 11
493.484217
 21
201.9352419999999
 31
0.0
  0
LINE
  5
ACF5
  8
DANMEN
  6
CONTINUOUS
 10
487.48421699999989
 20
202.13524199999989
 30
0.0
 11
487.48421699999989
 21
201.4352419999999
 31
0.0
  0
ARC
  5
ACF7
  8
DANMEN
  6
CONTINUOUS
 10
486.984217
 20
202.13524199999989
 30
0.0
 40
0.5
 50
0.0
 51
90.0
  0
LINE
  5
ACFB
  8
DANMEN
  6
CONTINUOUS
 10
494.484217
 20
206.58524199999999
 30
0.0
 11
494.484217
 21
201.9352419999999
 31
0.0
  0
LINE
  5
ACFD
  8
DANMEN
  6
CONTINUOUS
 10
494.484217
 20
206.58524199999999
 30
0.0
 11
502.18421699999999
 21
206.58524199999999
 31
0.0
  0
LINE
  5
AD00
  8
DANMEN
  6
CONTINUOUS
 10
531.48421699999994
 20
206.8852399999999
 30
0.0
 11
531.48421699999994
 21
165.18523999999991
 31
0.0
  0
LINE
  5
AD01
  8
DANMEN
  6
CONTINUOUS
 10
512.48421699999994
 20
158.18523999999999
 30
0.0
 11
512.48421699999994
 21
197.73524
 31
0.0
  0
LINE
  5
AD02
  8
DANMEN
  6
CONTINUOUS
 10
514.13421700000004
 20
166.8352459999999
 30
0.0
 11
514.13421700000004
 21
180.0352399999999
 31
0.0
  0
LINE
  5
AD03
  8
DANMEN
  6
CONTINUOUS
 10
512.48421599999995
 20
180.03524400000001
 30
0.0
 11
512.48421799999994
 21
173.03524400000001
 31
0.0
  0
LINE
  5
AD04
  8
DANMEN
  6
CONTINUOUS
 10
512.78421600000001
 20
180.03524400000001
 30
0.0
 11
512.78421800000001
 21
173.03524400000001
 31
0.0
  0
LINE
  5
AD05
  8
DANMEN
  6
CONTINUOUS
 10
532.48421500000006
 20
178.53524499999989
 30
0.0
 11
532.48421699999994
 21
174.53524899999991
 31
0.0
  0
LINE
  5
AD06
  8
DANMEN
  6
CONTINUOUS
 10
514.51172999999994
 20
178.30774199999991
 30
0.0
 11
514.51173099999994
 21
174.76274699999991
 31
0.0
  0
LINE
  5
AD07
  8
DANMEN
  6
DASHED
 10
513.69909299999995
 20
175.390255
 30
0.0
 11
514.18308399999989
 21
176.30050999999989
 31
0.0
  0
LINE
  5
AD08
  8
DANMEN
  6
CONTINUOUS
 10
515.75919199999987
 20
178.53524299999989
 30
0.0
 11
515.75919299999987
 21
174.535247
 31
0.0
  0
LINE
  5
AD09
  8
DANMEN
  6
CONTINUOUS
 10
514.98421699999994
 20
163.5352399999999
 30
0.0
 11
538.98421699999994
 21
163.5352399999999
 31
0.0
  0
LINE
  5
AD0A
  8
DANMEN
  6
CONTINUOUS
 10
531.48421699999994
 20
165.18523999999991
 30
0.0
 11
537.83421699999985
 21
165.18523999999991
 31
0.0
  0
LINE
  5
AD0B
  8
DANMEN
  6
CONTINUOUS
 10
527.48421699999994
 20
165.18523999999991
 30
0.0
 11
514.98421699999994
 21
165.18523999999991
 31
0.0
  0
LINE
  5
AD0C
  8
DANMEN
  6
CONTINUOUS
 10
514.13421700000004
 20
166.83524
 30
0.0
 11
522.88421700000004
 21
166.83524
 31
0.0
  0
LINE
  5
AD0D
  8
DANMEN
  6
CONTINUOUS
 10
514.48421699999994
 20
165.33523999999991
 30
0.0
 11
526.48421699999994
 21
165.33523999999991
 31
0.0
  0
LINE
  5
AD0E
  8
DANMEN
  6
CONTINUOUS
 10
515.75919299999987
 20
174.535246
 30
0.0
 11
532.48421399999995
 21
174.535248
 31
0.0
  0
LINE
  5
AD0F
  8
DANMEN
  6
CONTINUOUS
 10
515.75919299999987
 20
174.9142469999999
 30
0.0
 11
532.48421299999995
 21
174.91424900000001
 31
0.0
  0
LINE
  5
AD10
  8
DANMEN
  6
CONTINUOUS
 10
514.48421699999994
 20
164.68523999999999
 30
0.0
 11
514.48421699999994
 21
164.0352399999999
 31
0.0
  0
LINE
  5
AD11
  8
DANMEN
  6
CONTINUOUS
 10
514.48421699999994
 20
157.5352399999999
 30
0.0
 11
514.48421699999994
 21
165.3352459999999
 31
0.0
  0
ARC
  5
AD12
  8
DANMEN
  6
CONTINUOUS
 10
513.48421699999994
 20
157.5352399999999
 30
0.0
 40
1.0
 50
270.0
 51
0.0
  0
ARC
  5
AD15
  8
DANMEN
  6
CONTINUOUS
 10
514.98421699999994
 20
164.0352399999999
 30
0.0
 40
0.5
 50
180.0
 51
270.0
  0
ARC
  5
AD1B
  8
DANMEN
  6
CONTINUOUS
 10
514.98421699999994
 20
164.68523999999999
 30
0.0
 40
0.5
 50
90.0
 51
180.0
  0
LINE
  5
AD1F
  8
DANMEN
  6
CONTINUOUS
 10
515.75918300000001
 20
174.535256
 30
0.0
 11
514.51172199999985
 21
174.76275699999991
 31
0.0
  0
LINE
  5
AD20
  8
DANMEN
  6
CONTINUOUS
 10
515.75918300000001
 20
174.914254
 30
0.0
 11
514.51172199999985
 21
174.762754
 31
0.0
  0
LINE
  5
AD21
  8
DANMEN
  6
CONTINUOUS
 10
512.48421799999994
 20
173.03524400000001
 30
0.0
 11
512.78421800000001
 21
173.03524400000001
 31
0.0
  0
LINE
  5
AD22
  8
DANMEN
  6
CONTINUOUS
 10
512.78421800000001
 20
173.03524400000001
 30
0.0
 11
514.51172499999996
 21
174.76275199999989
 31
0.0
  0
LINE
  5
AD23
  8
DANMEN
  6
DASHED
 10
512.48421699999994
 20
174.78453899999991
 30
0.0
 11
513.69909299999995
 21
175.390254
 31
0.0
  0
LINE
  5
AD24
  8
DANMEN
  6
CONTINUOUS
 10
527.94831899999997
 20
165.68523999999999
 30
0.0
 11
526.98421699999994
 21
165.68523999999999
 31
0.0
  0
LINE
  5
AD25
  8
DANMEN
  6
CONTINUOUS
 10
527.94831899999997
 20
171.68523999999999
 30
0.0
 11
526.98421699999994
 21
171.68523999999999
 31
0.0
  0
LINE
  5
AD26
  8
DANMEN
  6
CONTINUOUS
 10
524.08421699999985
 20
166.5352399999999
 30
0.0
 11
524.08421699999985
 21
170.83524
 31
0.0
  0
LINE
  5
AD27
  8
DANMEN
  6
CONTINUOUS
 10
526.18421699999999
 20
169.83524
 30
0.0
 11
526.18421699999999
 21
170.83524
 31
0.0
  0
ARC
  5
AD28
  8
DANMEN
  6
CONTINUOUS
 10
526.48421699999994
 20
170.33523999999991
 30
0.0
 40
0.5
 50
270.0
 51
0.0
  0
LINE
  5
AD29
  8
DANMEN
  6
CONTINUOUS
 10
522.88421700000004
 20
166.83524
 30
0.0
 11
522.88421700000004
 21
171.0352399999999
 31
0.0
  0
LINE
  5
AD2A
  8
DANMEN
  6
CONTINUOUS
 10
526.98421699999994
 20
171.68523999999999
 30
0.0
 11
526.98421699999994
 21
165.68523999999999
 31
0.0
  0
LINE
  5
AD2B
  8
DANMEN
  6
CONTINUOUS
 10
525.98421699999994
 20
170.48524
 30
0.0
 11
525.98421699999994
 21
169.68523999999999
 31
0.0
  0
LINE
  5
AD2C
  8
DANMEN
  6
CONTINUOUS
 10
524.98421699999994
 20
170.48524
 30
0.0
 11
524.98421699999994
 21
169.83524
 31
0.0
  0
LINE
  5
AD30
  8
DANMEN
  6
CONTINUOUS
 10
524.08421699999985
 20
166.5352399999999
 30
0.0
 11
526.18421699999999
 21
166.5352399999999
 31
0.0
  0
ARC
  5
AD34
  8
DANMEN
  6
CONTINUOUS
 10
526.48421699999994
 20
167.0352399999999
 30
0.0
 40
0.5
 50
0.0
 51
90.0
  0
LINE
  5
AD36
  8
DANMEN
  6
CONTINUOUS
 10
526.18421699999999
 20
166.5352399999999
 30
0.0
 11
526.18421699999999
 21
167.5352399999999
 31
0.0
  0
LINE
  5
AD37
  8
DANMEN
  6
CONTINUOUS
 10
526.18421699999999
 20
169.83524
 30
0.0
 11
526.48421699999994
 21
169.83524
 31
0.0
  0
LINE
  5
AD38
  8
DANMEN
  6
CONTINUOUS
 10
526.18421699999999
 20
167.5352399999999
 30
0.0
 11
526.48421699999994
 21
167.5352399999999
 31
0.0
  0
ARC
  5
AD3A
  8
DANMEN
  6
CONTINUOUS
 10
526.48421699999994
 20
165.83524
 30
0.0
 40
0.5
 50
270.0
 51
0.0
  0
LINE
  5
AD3B
  8
DANMEN
  6
CONTINUOUS
 10
526.98421699999994
 20
165.83524
 30
0.0
 11
526.98421699999994
 21
167.0352399999999
 31
0.0
  0
LINE
  5
AD43
  8
DANMEN
  6
CONTINUOUS
 10
525.58421699999997
 20
169.0352409999999
 30
0.0
 11
525.58421699999997
 21
168.33524099999991
 31
0.0
  0
LINE
  5
AD45
  8
DANMEN
  6
CONTINUOUS
 10
526.98421699999994
 20
167.68523999999999
 30
0.0
 11
525.98421699999994
 21
167.68523999999999
 31
0.0
  0
LINE
  5
AD46
  8
DANMEN
  6
CONTINUOUS
 10
525.98421699999994
 20
167.68523999999999
 30
0.0
 11
525.98421699999994
 21
166.8852399999999
 31
0.0
  0
LINE
  5
AD47
  8
DANMEN
  6
CONTINUOUS
 10
526.98421699999994
 20
169.68523999999999
 30
0.0
 11
525.98421699999994
 21
169.68523999999999
 31
0.0
  0
LINE
  5
AD48
  8
DANMEN
  6
CONTINUOUS
 10
525.58421699999997
 20
168.33524099999991
 30
0.0
 11
524.98421699999994
 21
167.5352399999999
 31
0.0
  0
LINE
  5
AD49
  8
DANMEN
  6
CONTINUOUS
 10
524.98421699999994
 20
169.83524
 30
0.0
 11
525.58421699999997
 21
169.0352399999999
 31
0.0
  0
LINE
  5
AD4C
  8
DANMEN
  6
CONTINUOUS
 10
524.98421699999994
 20
167.5352399999999
 30
0.0
 11
524.98421699999994
 21
166.8852399999999
 31
0.0
  0
ARC
  5
AD4E
  8
DANMEN
  6
CONTINUOUS
 10
525.7842169999999
 20
166.8852399999999
 30
0.0
 40
0.2
 50
269.999999
 51
359.99998099999988
  0
ARC
  5
AD50
  8
DANMEN
  6
CONTINUOUS
 10
525.18421699999988
 20
166.8852399999999
 30
0.0
 40
0.2
 50
180.0
 51
269.99998199999987
  0
LINE
  5
AD52
  8
DANMEN
  6
CONTINUOUS
 10
525.7842169999999
 20
166.68523999999991
 30
0.0
 11
525.18421699999988
 21
166.68523999999991
 31
0.0
  0
ARC
  5
AD53
  8
DANMEN
  6
CONTINUOUS
 10
523.88421700000004
 20
171.0352399999999
 30
0.0
 40
1.0
 50
90.0
 51
180.0
  0
LINE
  5
AD57
  8
DANMEN
  6
CONTINUOUS
 10
524.08421699999985
 20
170.83524
 30
0.0
 11
526.18421699999999
 21
170.83524
 31
0.0
  0
LINE
  5
AD58
  8
DANMEN
  6
CONTINUOUS
 10
526.98421699999994
 20
170.33523999999991
 30
0.0
 11
526.98421699999994
 21
171.0352399999999
 31
0.0
  0
ARC
  5
AD5A
  8
DANMEN
  6
CONTINUOUS
 10
525.98421699999994
 20
171.0352399999999
 30
0.0
 40
1.0
 50
0.0
 51
90.0
  0
LINE
  5
AD5B
  8
DANMEN
  6
CONTINUOUS
 10
523.88421700000004
 20
172.0352399999999
 30
0.0
 11
525.98421699999994
 21
172.0352399999999
 31
0.0
  0
ARC
  5
AD5C
  8
DANMEN
  6
CONTINUOUS
 10
525.7842169999999
 20
170.48524
 30
0.0
 40
0.2
 50
359.99998099999988
 51
90.000018000000011
  0
ARC
  5
AD5E
  8
DANMEN
  6
CONTINUOUS
 10
525.18421699999988
 20
170.48524
 30
0.0
 40
0.2
 50
90.000018000000011
 51
180.0
  0
LINE
  5
AD60
  8
DANMEN
  6
CONTINUOUS
 10
525.7842169999999
 20
170.68523999999999
 30
0.0
 11
525.18421699999988
 21
170.68523999999999
 31
0.0
  0
LINE
  5
AD61
  8
DANMEN
  6
CONTINUOUS
 10
527.68421699999999
 20
170.98524
 30
0.0
 11
527.68421699999999
 21
166.3852399999999
 31
0.0
  0
ARC
  5
AD62
  8
DANMEN
  6
CONTINUOUS
 10
524.48421699999994
 20
168.68523999999999
 30
0.0
 40
5.0
 50
330.000001
 51
29.999998999999999
  0
ARC
  5
AD63
  8
DANMEN
  6
CONTINUOUS
 10
524.48421699999994
 20
168.68523999999999
 30
0.0
 40
4.2999999999999989
 50
331.72628700000001
 51
28.273713000000001
  0
LINE
  5
AD64
  8
DANMEN
  6
CONTINUOUS
 10
529.48421699999994
 20
164.6352399999999
 30
0.0
 11
527.48421699999994
 21
164.6352399999999
 31
0.0
  0
LINE
  5
AD65
  8
DANMEN
  6
CONTINUOUS
 10
527.48421699999994
 20
165.18523999999991
 30
0.0
 11
527.48421699999994
 21
164.6352399999999
 31
0.0
  0
LINE
  5
AD69
  8
DANMEN
  6
CONTINUOUS
 10
527.83085700000004
 20
166.3852399999999
 30
0.0
 11
527.68421699999999
 21
166.3852399999999
 31
0.0
  0
ARC
  5
AD6C
  8
DANMEN
  6
CONTINUOUS
 10
527.94831899999997
 20
166.68523999999991
 30
0.0
 40
1.0
 50
270.0
 51
330.000001
  0
ARC
  5
AD6E
  8
DANMEN
  6
CONTINUOUS
 10
527.83085700000004
 20
166.8852399999999
 30
0.0
 40
0.5
 50
270.0
 51
331.72628700000001
  0
LINE
  5
AD72
  8
DANMEN
  6
CONTINUOUS
 10
527.83085700000004
 20
170.98524
 30
0.0
 11
527.68421699999999
 21
170.98524
 31
0.0
  0
ARC
  5
AD74
  8
DANMEN
  6
CONTINUOUS
 10
527.94831899999997
 20
170.68523999999999
 30
0.0
 40
1.0
 50
29.999998999999999
 51
90.0
  0
ARC
  5
AD76
  8
DANMEN
  6
CONTINUOUS
 10
527.83085700000004
 20
170.48524
 30
0.0
 40
0.5
 50
28.273713000000001
 51
90.0
  0
LINE
  5
AD78
  8
DANMEN
  6
CONTINUOUS
 10
539.48421699999994
 20
171.5352399999999
 30
0.0
 11
539.48421699999994
 21
164.0352399999999
 31
0.0
  0
ARC
  5
AD79
  8
DANMEN
  6
CONTINUOUS
 10
538.98421699999994
 20
164.0352399999999
 30
0.0
 40
0.5
 50
270.0
 51
0.0
  0
LINE
  5
AD7B
  8
DANMEN
  6
CONTINUOUS
 10
537.83421699999985
 20
171.5352399999999
 30
0.0
 11
537.83421699999985
 21
165.18523999999991
 31
0.0
  0
ARC
  5
AD7D
  8
DANMEN
  6
CONTINUOUS
 10
538.98421699999994
 20
171.5352399999999
 30
0.0
 40
0.5
 50
0.0
 51
90.0
  0
LINE
  5
AD7E
  8
DANMEN
  6
CONTINUOUS
 10
538.33421699999985
 20
172.0352399999999
 30
0.0
 11
538.98421699999994
 21
172.0352399999999
 31
0.0
  0
ARC
  5
AD80
  8
DANMEN
  6
CONTINUOUS
 10
538.33421699999985
 20
171.5352399999999
 30
0.0
 40
0.5
 50
90.0
 51
180.0
  0
LINE
  5
AD82
  8
DANMEN
  6
CONTINUOUS
 10
537.83422299999995
 20
206.8852399999999
 30
0.0
 11
531.48421699999994
 21
206.8852399999999
 31
0.0
  0
LINE
  5
AD83
  8
DANMEN
  6
CONTINUOUS
 10
542.83422300000007
 20
208.53523999999999
 30
0.0
 11
531.13421100000005
 21
208.53523999999999
 31
0.0
  0
LINE
  5
AD84
  8
DANMEN
  6
CONTINUOUS
 10
508.48421699999989
 20
199.0352399999999
 30
0.0
 11
506.88615900000002
 21
198.71562800000001
 31
0.0
  0
LINE
  5
AD85
  8
DANMEN
  6
CONTINUOUS
 10
514.13421700000004
 20
181.23523999999989
 30
0.0
 11
514.13421700000004
 21
206.885246
 31
0.0
  0
ARC
  5
AD86
  8
DANMEN
  6
CONTINUOUS
 10
510.06105999999988
 20
199.43524199999999
 30
0.0
 40
0.5
 50
212.05460999999991
 51
270.0
  0
ARC
  5
AD87
  8
DANMEN
  6
CONTINUOUS
 10
510.28421700000001
 20
199.43524199999999
 30
0.0
 40
0.5
 50
270.0
 51
0.0
  0
LINE
  5
AD88
  8
DANMEN
  6
CONTINUOUS
 10
514.13421700000004
 20
181.23523999999989
 30
0.0
 11
528.78421700000001
 21
181.23523999999989
 31
0.0
  0
LINE
  5
AD89
  8
DANMEN
  6
CONTINUOUS
 10
514.13421700000004
 20
180.0352399999999
 30
0.0
 11
528.78421700000001
 21
180.0352399999999
 31
0.0
  0
LINE
  5
AD8A
  8
DANMEN
  6
CENTER
 10
511.44436300000001
 20
176.53524400000001
 30
0.0
 11
533.12276699999995
 21
176.53524400000001
 31
0.0
  0
LINE
  5
AD8B
  8
DANMEN
  6
CONTINUOUS
 10
515.75919199999987
 20
178.53524299999989
 30
0.0
 11
532.48421399999995
 21
178.53524499999989
 31
0.0
  0
LINE
  5
AD8C
  8
DANMEN
  6
CONTINUOUS
 10
515.75919299999987
 20
178.15624199999999
 30
0.0
 11
532.48421299999995
 21
178.1562439999999
 31
0.0
  0
LINE
  5
AD8D
  8
DANMEN
  6
CONTINUOUS
 10
515.759184
 20
178.15623500000001
 30
0.0
 11
514.51172199999985
 21
178.30773300000001
 31
0.0
  0
LINE
  5
AD8E
  8
DANMEN
  6
CONTINUOUS
 10
515.759184
 20
178.53523000000001
 30
0.0
 11
514.51172099999985
 21
178.307728
 31
0.0
  0
LINE
  5
AD93
  8
DANMEN
  6
CONTINUOUS
 10
512.48421599999995
 20
180.03524400000001
 30
0.0
 11
512.78421600000001
 21
180.03524400000001
 31
0.0
  0
LINE
  5
AD94
  8
DANMEN
  6
CONTINUOUS
 10
512.78421500000002
 20
180.03524400000001
 30
0.0
 11
514.51172499999996
 21
178.30773500000001
 31
0.0
  0
ARC
  5
AD95
  8
DANMEN
  6
DASHED
 10
513.74161900000001
 20
176.53524499999989
 30
0.0
 40
0.5
 50
332.00001299999991
 51
28.000077999999998
  0
LINE
  5
AD96
  8
DANMEN
  6
DASHED
 10
513.69909199999995
 20
177.68023299999999
 30
0.0
 11
514.1830829999999
 21
176.76998
 31
0.0
  0
LINE
  5
AD97
  8
DANMEN
  6
DASHED
 10
512.48421699999994
 20
178.28595100000001
 30
0.0
 11
513.69909199999995
 21
177.68023700000001
 31
0.0
  0
LINE
  5
AD98
  8
DANMEN
  6
CONTINUOUS
 10
506.484217
 20
197.73524
 30
0.0
 11
512.48421699999994
 21
197.73524
 31
0.0
  0
ARC
  5
AD99
  8
DANMEN
  6
CONTINUOUS
 10
506.984217
 20
198.22533799999991
 30
0.0
 40
0.5
 50
101.3099319999999
 51
180.0
  0
LINE
  5
AD9A
  8
DANMEN
  6
CONTINUOUS
 10
506.484217
 20
198.22533799999991
 30
0.0
 11
506.484217
 21
197.73524
 31
0.0
  0
ARC
  5
ADA0
  8
DANMEN
  6
CONTINUOUS
 10
528.78421700000001
 20
180.73524
 30
0.0
 40
0.5
 50
0.0
 51
90.0
  0
ARC
  5
ADA2
  8
DANMEN
  6
CONTINUOUS
 10
528.78421700000001
 20
180.5352399999999
 30
0.0
 40
0.5
 50
270.0
 51
0.0
  0
LINE
  5
ADA3
  8
DANMEN
  6
CONTINUOUS
 10
529.28421700000001
 20
180.5352399999999
 30
0.0
 11
529.28421700000001
 21
180.73524
 31
0.0
  0
LINE
  5
ADA4
  8
DANMEN
  6
CONTINUOUS
 10
504.98421699999989
 20
208.535246
 30
0.0
 11
528.98420599999986
 21
208.535246
 31
0.0
  0
LINE
  5
ADA5
  8
DANMEN
  6
CONTINUOUS
 10
514.13421700000004
 20
206.885246
 30
0.0
 11
528.28420599999993
 21
206.885246
 31
0.0
  0
LINE
  5
ADA6
  8
DANMEN
  6
CONTINUOUS
 10
508.48421699999989
 20
199.0352399999999
 30
0.0
 11
512.48421699999994
 21
199.0352399999999
 31
0.0
  0
LINE
  5
ADA7
  8
DANMEN
  6
CONTINUOUS
 10
505.984217
 20
206.885246
 30
0.0
 11
512.48421699999994
 21
206.885246
 31
0.0
  0
LINE
  5
ADA8
  8
DANMEN
  6
CONTINUOUS
 10
506.68421699999999
 20
206.33524199999999
 30
0.0
 11
510.78421700000001
 21
199.78776499999989
 31
0.0
  0
LINE
  5
ADA9
  8
DANMEN
  6
CONTINUOUS
 10
506.46538099999998
 20
204.23524199999989
 30
0.0
 11
509.6372889999999
 21
199.16987800000001
 31
0.0
  0
LINE
  5
ADAA
  8
DANMEN
  6
CONTINUOUS
 10
503.68421699999988
 20
204.23524199999989
 30
0.0
 11
506.46538099999998
 21
204.23524199999989
 31
0.0
  0
LINE
  5
ADAF
  8
DANMEN
  6
CONTINUOUS
 10
510.06105999999988
 20
198.9352419999999
 30
0.0
 11
510.28421700000001
 21
198.9352419999999
 31
0.0
  0
LINE
  5
ADB0
  8
DANMEN
  6
CONTINUOUS
 10
510.78421700000001
 20
199.78776499999989
 30
0.0
 11
510.78421700000001
 21
199.43524199999999
 31
0.0
  0
ARC
  5
ADB5
  8
DANMEN
  6
CONTINUOUS
 10
504.98421699999989
 20
208.03524599999989
 30
0.0
 40
0.5
 50
90.0
 51
180.0
  0
LINE
  5
ADB6
  8
DANMEN
  6
CONTINUOUS
 10
504.48421699999989
 20
206.3442629999999
 30
0.0
 11
504.48421699999989
 21
208.03524599999989
 31
0.0
  0
LINE
  5
ADB8
  8
DANMEN
  6
CONTINUOUS
 10
505.68421699999999
 20
205.53524599999989
 30
0.0
 11
505.48421699999989
 21
205.53524599999989
 31
0.0
  0
LINE
  5
ADB9
  8
DANMEN
  6
CONTINUOUS
 10
505.984217
 20
206.885246
 30
0.0
 11
505.984217
 21
205.83524600000001
 31
0.0
  0
ARC
  5
ADBA
  8
DANMEN
  6
CONTINUOUS
 10
505.68421699999999
 20
205.83524600000001
 30
0.0
 40
0.3
 50
270.0
 51
0.0
  0
LINE
  5
ADBD
  8
DANMEN
  6
CONTINUOUS
 10
505.48421699999989
 20
205.53524599999989
 30
0.0
 11
504.76060999999999
 21
205.89705000000001
 31
0.0
  0
ARC
  5
ADBE
  8
DANMEN
  6
CONTINUOUS
 10
504.98421699999989
 20
206.3442629999999
 30
0.0
 40
0.5
 50
180.0
 51
243.43494899999999
  0
LINE
  5
ADC1
  8
DANMEN
  6
CONTINUOUS
 10
504.48421699999989
 20
208.0352419999999
 30
0.0
 11
504.48421699999989
 21
206.58524199999999
 31
0.0
  0
ARC
  5
ADC2
  8
DANMEN
  6
CONTINUOUS
 10
503.984217
 20
208.0352419999999
 30
0.0
 40
0.5
 50
0.0
 51
90.0
  0
LINE
  5
ADC5
  8
DANMEN
  6
CONTINUOUS
 10
504.18421699999988
 20
205.5352419999999
 30
0.0
 11
505.984217
 21
205.5352419999999
 31
0.0
  0
LINE
  5
ADC6
  8
DANMEN
  6
CONTINUOUS
 10
504.18421699999988
 20
206.58524199999999
 30
0.0
 11
504.18421699999988
 21
205.5352419999999
 31
0.0
  0
LINE
  5
ADC8
  8
DANMEN
  6
CONTINUOUS
 10
504.18421699999988
 20
206.58524199999999
 30
0.0
 11
504.48421699999989
 21
206.58524199999999
 31
0.0
  0
LINE
  5
ADCA
  8
DANMEN
  6
CONTINUOUS
 10
506.18421699999999
 20
206.33524199999999
 30
0.0
 11
505.984217
 21
205.5352419999999
 31
0.0
  0
LINE
  5
ADCB
  8
DANMEN
  6
CONTINUOUS
 10
506.18421699999999
 20
206.33524199999999
 30
0.0
 11
506.68421699999999
 21
206.33524199999999
 31
0.0
  0
LINE
  5
ADCE
  8
DANMEN
  6
CONTINUOUS
 10
502.68421699999999
 20
206.08524199999991
 30
0.0
 11
502.68421699999999
 21
205.235242
 31
0.0
  0
LINE
  5
ADD3
  8
DANMEN
  6
CONTINUOUS
 10
512.48421699999994
 20
199.0352399999999
 30
0.0
 11
512.48421699999994
 21
206.885246
 31
0.0
  0
LINE
  5
ADD7
  8
DANMEN
  6
CONTINUOUS
 10
531.13421700000004
 20
211.5352399999999
 30
0.0
 11
531.13421700000004
 21
208.53523999999999
 31
0.0
  0
LINE
  5
ADDA
  8
DANMEN
  6
CONTINUOUS
 10
528.28420599999993
 20
205.5352399999999
 30
0.0
 11
528.98420599999986
 21
205.5352399999999
 31
0.0
  0
ARC
  5
ADDB
  8
DANMEN
  6
CONTINUOUS
 10
528.98420599999986
 20
206.0352399999999
 30
0.0
 40
0.5
 50
270.0
 51
0.0
  0
LINE
  5
ADDE
  8
DANMEN
  6
CONTINUOUS
 10
528.28420599999993
 20
205.5352399999999
 30
0.0
 11
528.28420599999993
 21
206.885246
 31
0.0
  0
LINE
  5
ADDF
  8
DANMEN
  6
CONTINUOUS
 10
529.48420599999986
 20
206.0352399999999
 30
0.0
 11
529.48420599999986
 21
208.03524599999989
 31
0.0
  0
ARC
  5
ADE0
  8
DANMEN
  6
CONTINUOUS
 10
528.98420599999986
 20
208.03524599999989
 30
0.0
 40
0.5
 50
0.0
 51
90.0
  0
LINE
  5
ADE4
  8
DANMEN
  6
CONTINUOUS
 10
531.48421699999994
 20
211.5352399999999
 30
0.0
 11
531.13421100000005
 21
211.5352399999999
 31
0.0
  0
LINE
  5
ADE7
  8
DANMEN
  6
CONTINUOUS
 10
553.48421699999994
 20
208.53523999999999
 30
0.0
 11
544.48421699999994
 21
208.53523999999999
 31
0.0
  0
LINE
  5
ADE8
  8
DANMEN
  6
CONTINUOUS
 10
553.48421699999994
 20
206.8852399999999
 30
0.0
 11
539.48421699999994
 21
206.8852399999999
 31
0.0
  0
LINE
  5
ADE9
  8
DANMEN
  6
CONTINUOUS
 10
537.83422299999995
 20
206.8852399999999
 30
0.0
 11
537.83422299999995
 21
204.53523999999999
 31
0.0
  0
LINE
  5
ADEA
  8
DANMEN
  6
CONTINUOUS
 10
539.48421699999994
 20
206.8852399999999
 30
0.0
 11
539.48421699999994
 21
204.53523999999999
 31
0.0
  0
ARC
  5
ADEB
  8
DANMEN
  6
CONTINUOUS
 10
538.98421699999994
 20
204.53523999999999
 30
0.0
 40
0.5
 50
270.00003700000002
 51
359.99996399999998
  0
ARC
  5
ADEE
  8
DANMEN
  6
CONTINUOUS
 10
538.33422300000007
 20
204.53523999999999
 30
0.0
 40
0.5
 50
180.0000189999999
 51
269.99998199999987
  0
LINE
  5
ADEF
  8
DANMEN
  6
CONTINUOUS
 10
538.98421699999994
 20
204.0352399999999
 30
0.0
 11
538.33422300000007
 21
204.0352399999999
 31
0.0
  0
ARC
  5
ADF6
  8
DANMEN
  6
CONTINUOUS
 10
553.48421699999994
 20
208.0352399999999
 30
0.0
 40
0.5
 50
359.99998099999988
 51
90.000018000000011
  0
ARC
  5
ADF7
  8
DANMEN
  6
CONTINUOUS
 10
553.48421699999994
 20
207.3852399999999
 30
0.0
 40
0.5
 50
269.999999
 51
359.99998099999988
  0
LINE
  5
ADF8
  8
DANMEN
  6
CONTINUOUS
 10
553.98421699999994
 20
208.0352399999999
 30
0.0
 11
553.98421699999994
 21
207.3852399999999
 31
0.0
  0
LINE
  5
ADF9
  8
DANMEN
  6
CONTINUOUS
 10
486.984217
 20
243.0352399999999
 30
0.0
 11
529.48421699999994
 21
243.0352399999999
 31
0.0
  0
LINE
  5
ADFA
  8
DANMEN
  6
CONTINUOUS
 10
486.984217
 20
246.03523999999999
 30
0.0
 11
529.48421699999994
 21
246.03523999999999
 31
0.0
  0
LINE
  5
ADFB
  8
DANMEN
  6
CONTINUOUS
 10
514.48421699999994
 20
263.53523999999987
 30
0.0
 11
498.984217
 21
263.53523999999987
 31
0.0
  0
LINE
  5
ADFC
  8
DANMEN
  6
CONTINUOUS
 10
452.484217
 20
228.0352399999999
 30
0.0
 11
529.48421699999994
 21
228.0352399999999
 31
0.0
  0
LINE
  5
ADFD
  8
DANMEN
  6
CONTINUOUS
 10
452.484217
 20
256.53523999999999
 30
0.0
 11
529.48421699999994
 21
256.53523999999999
 31
0.0
  0
LINE
  5
ADFE
  8
DANMEN
  6
CONTINUOUS
 10
452.484217
 20
246.5352399999999
 30
0.0
 11
529.48421699999994
 21
246.5352399999999
 31
0.0
  0
LINE
  5
ADFF
  8
DANMEN
  6
CONTINUOUS
 10
372.484217
 20
256.53523999999999
 30
0.0
 11
449.484217
 21
256.53523999999999
 31
0.0
  0
LINE
  5
AE00
  8
DANMEN
  6
CONTINUOUS
 10
372.484217
 20
246.5352399999999
 30
0.0
 11
449.484217
 21
246.5352399999999
 31
0.0
  0
LINE
  5
AE01
  8
DANMEN
  6
CONTINUOUS
 10
402.984217
 20
246.03523999999999
 30
0.0
 11
449.484217
 21
246.03523999999999
 31
0.0
  0
LINE
  5
AE02
  8
DANMEN
  6
CONTINUOUS
 10
402.984217
 20
243.0352399999999
 30
0.0
 11
449.484217
 21
243.0352399999999
 31
0.0
  0
LINE
  5
AE03
  8
DANMEN
  6
CONTINUOUS
 10
372.484217
 20
228.0352399999999
 30
0.0
 11
449.484217
 21
228.0352399999999
 31
0.0
  0
LINE
  5
AE04
  8
DANMEN
  6
CONTINUOUS
 10
402.984217
 20
262.43524400000001
 30
0.0
 11
449.484217
 21
262.43524400000001
 31
0.0
  0
LINE
  5
AE05
  8
DANMEN
  6
CONTINUOUS
 10
402.984217
 20
265.33524399999988
 30
0.0
 11
449.484217
 21
265.33524399999988
 31
0.0
  0
LINE
  5
AE06
  8
DANMEN
  6
CONTINUOUS
 10
402.984217
 20
266.53523999999987
 30
0.0
 11
449.484217
 21
266.53523999999987
 31
0.0
  0
LINE
  5
AE07
  8
DANMEN
  6
CONTINUOUS
 10
407.275507
 20
246.03523999999999
 30
0.0
 11
402.984217
 21
246.03523999999999
 31
0.0
  0
LINE
  5
AE08
  8
DANMEN
  6
CONTINUOUS
 10
407.275507
 20
243.0352399999999
 30
0.0
 11
402.984217
 21
243.0352399999999
 31
0.0
  0
LINE
  5
AE09
  8
DANMEN
  6
CONTINUOUS
 10
372.484217
 20
262.43523999999991
 30
0.0
 11
372.484217
 21
243.83523999999991
 31
0.0
  0
LINE
  5
AE0A
  8
DANMEN
  6
CONTINUOUS
 10
378.40995800000002
 20
245.88095000000001
 30
0.0
 11
382.64861599999989
 21
245.17450699999989
 31
0.0
  0
ARC
  5
AE0B
  8
DANMEN
  6
CONTINUOUS
 10
378.3277589999999
 20
245.38775299999989
 30
0.0
 40
0.5
 50
80.537678000000014
 51
204.44395499999999
  0
LINE
  5
AE0C
  8
DANMEN
  6
CONTINUOUS
 10
402.984217
 20
246.03523999999999
 30
0.0
 11
402.984217
 21
243.0352399999999
 31
0.0
  0
LINE
  5
AE10
  8
DANMEN
  6
CONTINUOUS
 10
377.565853
 20
242.048846
 30
0.0
 11
382.64861599999989
 21
242.89597299999991
 31
0.0
  0
LINE
  5
AE11
  8
DANMEN
  6
CONTINUOUS
 10
372.484217
 20
242.03523999999999
 30
0.0
 11
377.401454
 21
242.03523999999999
 31
0.0
  0
LINE
  5
AE12
  8
DANMEN
  6
CONTINUOUS
 10
372.484217
 20
243.83523999999991
 30
0.0
 11
377.70771500000001
 21
243.83523999999991
 31
0.0
  0
LINE
  5
AE16
  8
DANMEN
  6
CONTINUOUS
 10
377.87257499999993
 20
245.1808509999999
 30
0.0
 11
378.16289799999993
 21
244.54214099999999
 31
0.0
  0
ARC
  5
AE17
  8
DANMEN
  6
CONTINUOUS
 10
377.401454
 20
243.0352399999999
 30
0.0
 40
1.0
 50
270.0
 51
279.46232199999997
  0
ARC
  5
AE19
  8
DANMEN
  6
CONTINUOUS
 10
377.70771500000001
 20
244.33524
 30
0.0
 40
0.5
 50
270.0
 51
24.443954999999999
  0
LINE
  5
AE1C
  8
DANMEN
  6
CONTINUOUS
 10
383.48421699999989
 20
244.18811299999999
 30
0.0
 11
383.48421699999989
 21
243.88236699999999
 31
0.0
  0
ARC
  5
AE1D
  8
DANMEN
  6
CONTINUOUS
 10
382.484217
 20
243.88236699999999
 30
0.0
 40
1.0
 50
279.46232199999997
 51
0.0
  0
ARC
  5
AE1F
  8
DANMEN
  6
CONTINUOUS
 10
382.484217
 20
244.18811299999999
 30
0.0
 40
1.0
 50
0.0
 51
80.537678000000014
  0
LINE
  5
AE23
  8
DANMEN
  6
CONTINUOUS
 10
386.984217
 20
263.53523999999987
 30
0.0
 11
402.984217
 21
263.53523999999987
 31
0.0
  0
LINE
  5
AE26
  8
DANMEN
  6
CONTINUOUS
 10
377.48421699999989
 20
261.88524000000001
 30
0.0
 11
386.984217
 21
261.88524000000001
 31
0.0
  0
LINE
  5
AE27
  8
DANMEN
  6
CONTINUOUS
 10
374.484217
 20
261.88524000000001
 30
0.0
 11
376.484217
 21
261.88524000000001
 31
0.0
  0
LINE
  5
AE28
  8
DANMEN
  6
CONTINUOUS
 10
374.484217
 20
262.43523999999991
 30
0.0
 11
374.484217
 21
261.88524000000001
 31
0.0
  0
LINE
  5
AE29
  8
DANMEN
  6
CONTINUOUS
 10
372.484217
 20
262.43523999999991
 30
0.0
 11
374.484217
 21
262.43523999999991
 31
0.0
  0
LINE
  5
AE2D
  8
DANMEN
  6
CONTINUOUS
 10
376.484217
 20
260.53523999999999
 30
0.0
 11
376.98421699999989
 21
260.53523999999999
 31
0.0
  0
LINE
  5
AE2E
  8
DANMEN
  6
CONTINUOUS
 10
376.484217
 20
261.88524000000001
 30
0.0
 11
376.484217
 21
260.53523999999999
 31
0.0
  0
LINE
  5
AE2F
  8
DANMEN
  6
CONTINUOUS
 10
377.48421699999989
 20
261.88524000000001
 30
0.0
 11
377.48421699999989
 21
261.03523999999999
 31
0.0
  0
ARC
  5
AE33
  8
DANMEN
  6
CONTINUOUS
 10
376.98421699999989
 20
261.03523999999999
 30
0.0
 40
0.5
 50
270.0
 51
0.0
  0
LINE
  5
AE35
  8
DANMEN
  6
CONTINUOUS
 10
387.48421699999989
 20
263.03523999999999
 30
0.0
 11
387.48421699999989
 21
262.38524000000001
 31
0.0
  0
ARC
  5
AE36
  8
DANMEN
  6
CONTINUOUS
 10
386.984217
 20
262.38524000000001
 30
0.0
 40
0.5
 50
270.0
 51
0.0
  0
ARC
  5
AE38
  8
DANMEN
  6
CONTINUOUS
 10
386.984217
 20
263.03523999999999
 30
0.0
 40
0.5
 50
0.0
 51
90.0
  0
LINE
  5
AE3B
  8
DANMEN
  6
CONTINUOUS
 10
402.984217
 20
266.53523999999987
 30
0.0
 11
402.984217
 21
262.43524400000001
 31
0.0
  0
ARC
  5
AE3C
  8
DANMEN
  6
CONTINUOUS
 10
404.98421699999989
 20
244.5352399999999
 30
0.0
 40
3.0
 50
336.42184199999991
 51
23.578178000000001
  0
ARC
  5
AE3E
  8
DANMEN
  6
CONTINUOUS
 10
407.275507
 20
243.5352399999999
 30
0.0
 40
0.5
 50
270.000291
 51
336.42195099999992
  0
ARC
  5
AE41
  8
DANMEN
  6
CONTINUOUS
 10
407.275507
 20
245.5352399999999
 30
0.0
 40
0.5
 50
23.578068999999989
 51
89.999763000000002
  0
ARC
  5
AE44
  8
DANMEN
  6
CONTINUOUS
 10
407.38421099999999
 20
265.93523399999992
 30
0.0
 40
0.6
 50
270.0000179999999
 51
90.000037000000006
  0
LINE
  5
AE45
  8
DANMEN
  6
CONTINUOUS
 10
452.484217
 20
246.03523999999999
 30
0.0
 11
471.48421699999989
 21
246.03523999999999
 31
0.0
  0
LINE
  5
AE46
  8
DANMEN
  6
CONTINUOUS
 10
452.484217
 20
243.0352399999999
 30
0.0
 11
471.48421699999989
 21
243.0352399999999
 31
0.0
  0
LINE
  5
AE47
  8
DANMEN
  6
CONTINUOUS
 10
498.984217
 20
266.53523999999987
 30
0.0
 11
452.484217
 21
266.53523999999987
 31
0.0
  0
LINE
  5
AE48
  8
DANMEN
  6
CONTINUOUS
 10
498.984217
 20
265.33524399999988
 30
0.0
 11
452.484217
 21
265.33524399999988
 31
0.0
  0
LINE
  5
AE49
  8
DANMEN
  6
CONTINUOUS
 10
498.984217
 20
262.43524400000001
 30
0.0
 11
452.484217
 21
262.43524400000001
 31
0.0
  0
LINE
  5
AE4A
  8
DANMEN
  6
CONTINUOUS
 10
467.19292699999988
 20
246.03523999999999
 30
0.0
 11
471.48421699999989
 21
246.03523999999999
 31
0.0
  0
LINE
  5
AE4B
  8
DANMEN
  6
CONTINUOUS
 10
467.19292699999988
 20
243.0352399999999
 30
0.0
 11
471.48421699999989
 21
243.0352399999999
 31
0.0
  0
ARC
  5
AE4C
  8
DANMEN
  6
CONTINUOUS
 10
469.484217
 20
244.5352399999999
 30
0.0
 40
3.0
 50
156.42182199999991
 51
203.578158
  0
ARC
  5
AE4E
  8
DANMEN
  6
CONTINUOUS
 10
467.19292699999988
 20
243.5352399999999
 30
0.0
 40
0.5
 50
203.57804899999999
 51
269.999709
  0
ARC
  5
AE51
  8
DANMEN
  6
CONTINUOUS
 10
467.19292699999988
 20
245.5352399999999
 30
0.0
 40
0.5
 50
90.000236999999984
 51
156.421931
  0
LINE
  5
AE54
  8
DANMEN
  6
CONTINUOUS
 10
486.984217
 20
243.0352399999999
 30
0.0
 11
486.984217
 21
246.03523999999999
 31
0.0
  0
LINE
  5
AE55
  8
DANMEN
  6
CONTINUOUS
 10
471.48421699999989
 20
246.03523999999999
 30
0.0
 11
471.48421699999989
 21
243.0352399999999
 31
0.0
  0
ARC
  5
AE59
  8
DANMEN
  6
CONTINUOUS
 10
494.58422300000012
 20
265.93523399999992
 30
0.0
 40
0.6
 50
89.999962999999994
 51
269.99998199999987
  0
LINE
  5
AE5A
  8
DANMEN
  6
CONTINUOUS
 10
498.984217
 20
266.53523999999987
 30
0.0
 11
498.984217
 21
262.43524400000001
 31
0.0
  0
LINE
  5
AE5B
  8
DANMEN
  6
CONTINUOUS
 10
514.98421699999994
 20
263.53523999999987
 30
0.0
 11
543.98421699999994
 21
263.53523999999987
 31
0.0
  0
LINE
  5
AE5C
  8
DANMEN
  6
CONTINUOUS
 10
542.83421699999985
 20
261.88524000000001
 30
0.0
 11
531.48421699999994
 21
261.88524000000001
 31
0.0
  0
LINE
  5
AE5D
  8
DANMEN
  6
CONTINUOUS
 10
527.48421699999994
 20
261.88524000000001
 30
0.0
 11
514.98421699999994
 21
261.88524000000001
 31
0.0
  0
LINE
  5
AE5E
  8
DANMEN
  6
CONTINUOUS
 10
514.48421699999994
 20
263.03523999999999
 30
0.0
 11
514.48421699999994
 21
262.38524000000001
 31
0.0
  0
ARC
  5
AE5F
  8
DANMEN
  6
CONTINUOUS
 10
514.98421699999994
 20
262.38524000000001
 30
0.0
 40
0.5
 50
180.0
 51
270.0
  0
ARC
  5
AE61
  8
DANMEN
  6
CONTINUOUS
 10
514.98421699999994
 20
263.03523999999999
 30
0.0
 40
0.5
 50
90.0
 51
180.0
  0
LINE
  5
AE64
  8
DANMEN
  6
CONTINUOUS
 10
527.48421699999994
 20
262.43523999999991
 30
0.0
 11
527.48421699999994
 21
261.88524000000001
 31
0.0
  0
LINE
  5
AE65
  8
DANMEN
  6
CONTINUOUS
 10
529.48421699999994
 20
262.43523999999991
 30
0.0
 11
527.48421699999994
 21
262.43523999999991
 31
0.0
  0
ARC
  5
AE6D
  8
DANMEN
  6
CONTINUOUS
 10
543.98421699999994
 20
263.03523999999999
 30
0.0
 40
0.5
 50
359.99998099999988
 51
90.000018000000011
  0
LINE
  5
AE6E
  8
SUNPO
  6
CONTINUOUS
 10
463.48421699999989
 20
136.5352399999999
 30
0.0
 11
514.48421699999994
 21
136.5352399999999
 31
0.0
  0
LINE
  5
AE6F
  8
SUNPO
  6
BYBLOCK
 10
512.98421599999995
 20
163.5352399999999
 30
0.0
 11
466.15497399999998
 21
163.5352399999999
 31
0.0
  0
LINE
  5
AE70
  8
SUNPO
  6
BYBLOCK
 10
514.48421699999994
 20
146.5352399999999
 30
0.0
 11
480.48421699999989
 21
146.5352399999999
 31
0.0
  0
LINE
  5
AE71
  8
SUNPO
  6
BYBLOCK
 10
480.48421699999989
 20
273.53523999999999
 30
0.0
 11
514.48421699999994
 21
273.53523999999999
 31
0.0
  0
LINE
  5
AE72
  8
SUNPO
  6
BYBLOCK
 10
466.15497399999998
 20
163.5352399999999
 30
0.0
 11
466.15497399999998
 21
263.53523999999987
 31
0.0
  0
LINE
  5
AE73
  8
SUNPO
  6
BYBLOCK
 10
387.48421699999989
 20
162.0352399999999
 30
0.0
 11
387.48421699999989
 21
136.5352399999999
 31
0.0
  0
LINE
  5
AE74
  8
SUNPO
  6
BYBLOCK
 10
372.484217
 20
162.0352399999999
 30
0.0
 11
372.484217
 21
146.5352399999999
 31
0.0
  0
LINE
  5
AE75
  8
SUNPO
  6
BYBLOCK
 10
387.48421699999989
 20
155.0352399999999
 30
0.0
 11
387.48421699999989
 21
146.5352399999999
 31
0.0
  0
LINE
  5
AE76
  8
SUNPO
  6
BYBLOCK
 10
372.484217
 20
156.13524099999989
 30
0.0
 11
372.484217
 21
146.5352399999999
 31
0.0
  0
LINE
  5
AE77
  8
SUNPO
  6
CONTINUOUS
 10
387.48421699999989
 20
136.5352399999999
 30
0.0
 11
433.48421699999989
 21
136.5352399999999
 31
0.0
  0
LINE
  5
AE78
  8
SUNPO
  6
CONTINUOUS
 10
387.48421699999989
 20
136.5352399999999
 30
0.0
 11
392.484217
 21
141.5352399999999
 31
0.0
  0
LINE
  5
AE79
  8
SUNPO
  6
CONTINUOUS
 10
392.484217
 20
131.5352399999999
 30
0.0
 11
387.48421699999989
 21
136.5352399999999
 31
0.0
  0
LINE
  5
AE7B
  8
SUNPO
  6
BYBLOCK
 10
387.48421699999989
 20
146.5352399999999
 30
0.0
 11
372.484217
 21
146.5352399999999
 31
0.0
  0
TEXT
  5
AE7C
  8
SUNPO
  6
CONTINUOUS
 10
378.31754999999998
 20
147.0352399999999
 30
0.0
 40
2.5
  1
15
  7
MX_NOTE_STANDARD
  0
ARC
  5
AE7E
  8
SUNPO
  6
BYBLOCK
 10
372.484217
 20
146.5352399999999
 30
0.0
 40
0.145
 50
180.0
 51
0.0
  0
ARC
  5
AE7F
  8
SUNPO
  6
BYBLOCK
 10
372.484217
 20
146.5352399999999
 30
0.0
 40
0.145
 50
0.0
 51
180.0
  0
ARC
  5
AE80
  8
SUNPO
  6
BYBLOCK
 10
372.484217
 20
146.5352399999999
 30
0.0
 40
0.145
 50
0.0
 51
180.0
  0
ARC
  5
AE81
  8
SUNPO
  6
BYBLOCK
 10
372.484217
 20
146.5352399999999
 30
0.0
 40
0.145
 50
180.0
 51
0.0
  0
ARC
  5
AE82
  8
SUNPO
  6
BYBLOCK
 10
387.48421699999989
 20
146.5352399999999
 30
0.0
 40
0.145
 50
180.0
 51
0.0
  0
ARC
  5
AE83
  8
SUNPO
  6
BYBLOCK
 10
387.48421699999989
 20
146.5352399999999
 30
0.0
 40
0.145
 50
0.0
 51
180.0
  0
LINE
  5
AE84
  8
SUNPO
  6
CONTINUOUS
 10
392.484217
 20
141.5352399999999
 30
0.0
 11
392.484217
 21
131.5352399999999
 31
0.0
  0
LINE
  5
AE8B
  8
SUNPO
  6
BYBLOCK
 10
480.48421699999989
 20
155.0352399999999
 30
0.0
 11
480.48421699999989
 21
146.5352399999999
 31
0.0
  0
LINE
  5
AE8C
  8
SUNPO
  6
CONTINUOUS
 10
445.67032999999998
 20
133.0352399999999
 30
0.0
 11
441.19279899999998
 21
133.0352399999999
 31
0.0
  0
LINE
  5
AE8D
  8
SUNPO
  6
CONTINUOUS
 10
448.71177699999998
 20
133.0352409999999
 30
0.0
 11
444.67033099999998
 21
140.03523799999991
 31
0.0
  0
LINE
  5
AE8E
  8
SUNPO
  6
CONTINUOUS
 10
447.9797309999999
 20
140.0352399999999
 30
0.0
 11
443.67032999999992
 21
140.0352399999999
 31
0.0
  0
LINE
  5
AE8F
  8
SUNPO
  6
CONTINUOUS
 10
442.36099299999989
 20
133.0352409999999
 30
0.0
 11
438.319548
 21
140.035237
 31
0.0
  0
LINE
  5
AE90
  8
SUNPO
  6
CONTINUOUS
 10
444.67033099999998
 20
133.0352399999999
 30
0.0
 11
440.62888500000003
 21
140.035237
 31
0.0
  0
LINE
  5
AE91
  8
SUNPO
  6
CONTINUOUS
 10
444.67032999999998
 20
140.0352399999999
 30
0.0
 11
444.67032999999998
 21
133.0352409999999
 31
0.0
  0
LINE
  5
AE92
  8
SUNPO
  6
CONTINUOUS
 10
441.59055699999999
 20
140.0352399999999
 30
0.0
 11
437.21520700000002
 21
140.0352399999999
 31
0.0
  0
LINE
  5
AE93
  8
SUNPO
  6
CONTINUOUS
 10
451.02117800000002
 20
140.0352399999999
 30
0.0
 11
451.02117800000002
 21
133.03524299999989
 31
0.0
  0
LINE
  5
AE94
  8
SUNPO
  6
CONTINUOUS
 10
451.02117599999991
 20
133.03524400000001
 30
0.0
 11
446.97973200000001
 21
140.035237
 31
0.0
  0
LINE
  5
AE95
  8
SUNPO
  6
CONTINUOUS
 10
451.59852699999988
 20
133.0352399999999
 30
0.0
 11
448.020779
 21
133.0352399999999
 31
0.0
  0
LINE
  5
AE97
  8
SUNPO
  6
CONTINUOUS
 10
451.98002199999991
 20
140.0352399999999
 30
0.0
 11
449.94350199999991
 21
140.0352399999999
 31
0.0
  0
LINE
  5
AE98
  8
SUNPO
  6
CONTINUOUS
 10
459.75322699999998
 20
135.03523999999999
 30
0.0
 11
454.75322699999992
 21
135.03523999999999
 31
0.0
  0
LINE
  5
AE99
  8
SUNPO
  6
CONTINUOUS
 10
459.75322699999998
 20
138.0352399999999
 30
0.0
 11
454.75322699999992
 21
138.0352399999999
 31
0.0
  0
ARC
  5
AE9B
  8
SUNPO
  6
BYBLOCK
 10
480.48421699999989
 20
146.5352399999999
 30
0.0
 40
0.145
 50
0.0
 51
180.0
  0
ARC
  5
AE9C
  8
SUNPO
  6
BYBLOCK
 10
480.48421699999989
 20
146.5352399999999
 30
0.0
 40
0.145
 50
180.0
 51
0.0
  0
TEXT
  5
AE9D
  8
SUNPO
  6
CONTINUOUS
 10
495.40088300000002
 20
147.0352399999999
 30
0.0
 40
2.5
  1
34
  7
MX_NOTE_STANDARD
  0
LINE
  5
AE9E
  8
SUNPO
  6
BYBLOCK
 10
466.15497399999998
 20
156.5352399999999
 30
0.0
 11
466.15497399999998
 21
163.5352399999999
 31
0.0
  0
TEXT
  5
AE9F
  8
SUNPO
  6
CONTINUOUS
 10
465.65497399999998
 20
159.20190700000001
 30
0.0
 40
2.5
  1
7
 50
90.0
  7
MX_NOTE_STANDARD
  0
ARC
  5
AEA0
  8
SUNPO
  6
BYBLOCK
 10
466.15497399999998
 20
156.5352399999999
 30
0.0
 40
0.145
 50
90.0
 51
270.0
  0
ARC
  5
AEA1
  8
SUNPO
  6
BYBLOCK
 10
466.15497399999998
 20
156.5352399999999
 30
0.0
 40
0.145
 50
270.0
 51
90.0
  0
ARC
  5
AEA3
  8
SUNPO
  6
BYBLOCK
 10
466.15497399999998
 20
163.5352399999999
 30
0.0
 40
0.145
 50
270.0
 51
90.0
  0
ARC
  5
AEA4
  8
SUNPO
  6
BYBLOCK
 10
466.15497399999998
 20
163.5352399999999
 30
0.0
 40
0.145
 50
90.0
 51
270.0
  0
ARC
  5
AEA5
  8
SUNPO
  6
BYBLOCK
 10
466.15497399999998
 20
163.5352399999999
 30
0.0
 40
0.145
 50
90.0
 51
270.0
  0
ARC
  5
AEA6
  8
SUNPO
  6
BYBLOCK
 10
466.15497399999998
 20
163.5352399999999
 30
0.0
 40
0.145
 50
270.0
 51
90.0
  0
LINE
  5
AEAA
  8
SUNPO
  6
BYBLOCK
 10
387.48421699999989
 20
265.03523999999999
 30
0.0
 11
387.48421699999989
 21
273.53523999999999
 31
0.0
  0
ARC
  5
AEAD
  8
SUNPO
  6
BYBLOCK
 10
387.48421699999989
 20
273.53523999999999
 30
0.0
 40
0.145
 50
180.0
 51
0.0
  0
ARC
  5
AEAE
  8
SUNPO
  6
BYBLOCK
 10
387.48421699999989
 20
273.53523999999999
 30
0.0
 40
0.145
 50
0.0
 51
180.0
  0
TEXT
  5
AEAF
  8
SUNPO
  6
CONTINUOUS
 10
465.65497399999998
 20
211.7142529999999
 30
0.0
 40
2.5
  1
100
 50
90.0
  7
MX_NOTE_STANDARD
  0
LINE
  5
AEB0
  8
SUNPO
  6
BYBLOCK
 10
497.484216
 20
263.53523999999987
 30
0.0
 11
466.15497399999998
 21
263.53523999999987
 31
0.0
  0
LINE
  5
AEB1
  8
SUNPO
  6
BYBLOCK
 10
492.98421599999989
 20
263.53523999999987
 30
0.0
 11
466.15497399999998
 21
263.53523999999987
 31
0.0
  0
LINE
  5
AEB2
  8
SUNPO
  6
BYBLOCK
 10
466.15497399999998
 20
263.53523999999987
 30
0.0
 11
466.15497399999998
 21
266.53523999999987
 31
0.0
  0
ARC
  5
AEB4
  8
SUNPO
  6
BYBLOCK
 10
466.15497399999998
 20
263.53523999999987
 30
0.0
 40
0.145
 50
270.0
 51
90.0
  0
ARC
  5
AEB5
  8
SUNPO
  6
BYBLOCK
 10
466.15497399999998
 20
263.53523999999987
 30
0.0
 40
0.145
 50
90.0
 51
270.0
  0
ARC
  5
AEB6
  8
SUNPO
  6
BYBLOCK
 10
466.15497399999998
 20
263.53523999999987
 30
0.0
 40
0.145
 50
90.0
 51
270.0
  0
ARC
  5
AEB7
  8
SUNPO
  6
BYBLOCK
 10
466.15497399999998
 20
263.53523999999987
 30
0.0
 40
0.145
 50
270.0
 51
90.0
  0
TEXT
  5
AEB8
  8
SUNPO
  6
CONTINUOUS
 10
465.65497399999998
 20
267.56720300000001
 30
0.0
 40
2.5
  1
3
 50
90.0
  7
MX_NOTE_STANDARD
  0
LINE
  5
AEB9
  8
SUNPO
  6
BYBLOCK
 10
466.15497399999998
 20
266.53523999999987
 30
0.0
 11
466.15497399999998
 21
269.65053599999987
 31
0.0
  0
ARC
  5
AEBB
  8
SUNPO
  6
BYBLOCK
 10
466.15497399999998
 20
266.53523999999987
 30
0.0
 40
0.145
 50
270.0
 51
90.0
  0
ARC
  5
AEBC
  8
SUNPO
  6
BYBLOCK
 10
466.15497399999998
 20
266.53523999999987
 30
0.0
 40
0.145
 50
90.0
 51
270.0
  0
LINE
  5
AEBD
  8
SUNPO
  6
BYBLOCK
 10
480.48421699999989
 20
265.03523999999999
 30
0.0
 11
480.48421699999989
 21
273.53523999999999
 31
0.0
  0
ARC
  5
AEC2
  8
SUNPO
  6
BYBLOCK
 10
480.48421699999989
 20
273.53523999999999
 30
0.0
 40
0.145
 50
0.0
 51
180.0
  0
ARC
  5
AEC3
  8
SUNPO
  6
BYBLOCK
 10
480.48421699999989
 20
273.53523999999999
 30
0.0
 40
0.145
 50
180.0
 51
0.0
  0
TEXT
  5
AEC4
  8
SUNPO
  6
CONTINUOUS
 10
495.40088300000002
 20
274.03523999999987
 30
0.0
 40
2.5
  1
34
  7
MX_NOTE_STANDARD
  0
LINE
  5
AEC5
  8
SUNPO
  6
BYBLOCK
 10
554.48421699999994
 20
205.3852389999999
 30
0.0
 11
554.48421699999994
 21
136.5352399999999
 31
0.0
  0
LINE
  5
AEC6
  8
SUNPO
  6
BYBLOCK
 10
564.48421699999994
 20
208.53523999999999
 30
0.0
 11
564.48421699999994
 21
176.53524400000001
 31
0.0
  0
LINE
  5
AEC7
  8
SUNPO
  6
BYBLOCK
 10
514.48421699999994
 20
155.0352399999999
 30
0.0
 11
514.48421699999994
 21
146.5352399999999
 31
0.0
  0
LINE
  5
AEC8
  8
SUNPO
  6
BYBLOCK
 10
544.48421699999994
 20
162.0352399999999
 30
0.0
 11
544.48421699999994
 21
136.5352399999999
 31
0.0
  0
LINE
  5
AEC9
  8
SUNPO
  6
BYBLOCK
 10
529.48421699999994
 20
156.13524099999989
 30
0.0
 11
529.48421699999994
 21
146.5352399999999
 31
0.0
  0
LINE
  5
AECA
  8
SUNPO
  6
BYBLOCK
 10
514.48421699999994
 20
155.0352399999999
 30
0.0
 11
514.48421699999994
 21
146.5352399999999
 31
0.0
  0
LINE
  5
AECB
  8
SUNPO
  6
BYBLOCK
 10
544.48421699999994
 20
155.0352399999999
 30
0.0
 11
544.48421699999994
 21
136.5352399999999
 31
0.0
  0
LINE
  5
AECC
  8
SUNPO
  6
BYBLOCK
 10
514.48421699999994
 20
155.0352399999999
 30
0.0
 11
514.48421699999994
 21
136.5352399999999
 31
0.0
  0
LINE
  5
AECD
  8
SUNPO
  6
BYBLOCK
 10
544.48421699999994
 20
155.0352399999999
 30
0.0
 11
544.48421699999994
 21
146.5352399999999
 31
0.0
  0
LINE
  5
AECE
  8
SUNPO
  6
BYBLOCK
 10
529.48421699999994
 20
162.0352399999999
 30
0.0
 11
529.48421699999994
 21
146.5352399999999
 31
0.0
  0
LINE
  5
AECF
  8
SUNPO
  6
BYBLOCK
 10
544.48421699999994
 20
136.5352399999999
 30
0.0
 11
514.48421699999994
 21
136.5352399999999
 31
0.0
  0
LINE
  5
AED0
  8
SUNPO
  6
BYBLOCK
 10
544.48421699999994
 20
146.5352399999999
 30
0.0
 11
529.48421699999994
 21
146.5352399999999
 31
0.0
  0
TEXT
  5
AED1
  8
SUNPO
  6
CONTINUOUS
 10
535.31754999999987
 20
147.0352399999999
 30
0.0
 40
2.5
  1
15
  7
MX_NOTE_STANDARD
  0
LINE
  5
AED2
  8
SUNPO
  6
BYBLOCK
 10
529.48421699999994
 20
146.5352399999999
 30
0.0
 11
514.48421699999994
 21
146.5352399999999
 31
0.0
  0
LINE
  5
AED3
  8
SUNPO
  6
CONTINUOUS
 10
514.48421699999994
 20
136.5352399999999
 30
0.0
 11
509.48421699999989
 21
131.5352399999999
 31
0.0
  0
LINE
  5
AED4
  8
SUNPO
  6
CONTINUOUS
 10
509.48421699999989
 20
141.5352399999999
 30
0.0
 11
514.48421699999994
 21
136.5352399999999
 31
0.0
  0
LINE
  5
AED5
  8
SUNPO
  6
CONTINUOUS
 10
509.48421699999989
 20
131.5352399999999
 30
0.0
 11
509.48421699999989
 21
141.5352399999999
 31
0.0
  0
ARC
  5
AEDB
  8
SUNPO
  6
BYBLOCK
 10
514.48421699999994
 20
146.5352399999999
 30
0.0
 40
0.145
 50
180.0
 51
0.0
  0
ARC
  5
AEDC
  8
SUNPO
  6
BYBLOCK
 10
514.48421699999994
 20
146.5352399999999
 30
0.0
 40
0.145
 50
0.0
 51
180.0
  0
ARC
  5
AEDD
  8
SUNPO
  6
BYBLOCK
 10
514.48421699999994
 20
146.5352399999999
 30
0.0
 40
0.145
 50
0.0
 51
180.0
  0
ARC
  5
AEDE
  8
SUNPO
  6
BYBLOCK
 10
514.48421699999994
 20
146.5352399999999
 30
0.0
 40
0.145
 50
180.0
 51
0.0
  0
TEXT
  5
AEDF
  8
SUNPO
  6
CONTINUOUS
 10
527.60921699999994
 20
137.0352399999999
 30
0.0
 40
2.5
  1
30
  7
MX_NOTE_STANDARD
  0
TEXT
  5
AEE0
  8
SUNPO
  6
CONTINUOUS
 10
520.31754999999987
 20
147.0352399999999
 30
0.0
 40
2.5
  1
15
  7
MX_NOTE_STANDARD
  0
ARC
  5
AEE2
  8
SUNPO
  6
BYBLOCK
 10
529.48421699999994
 20
146.5352399999999
 30
0.0
 40
0.145
 50
180.0
 51
0.0
  0
ARC
  5
AEE3
  8
SUNPO
  6
BYBLOCK
 10
529.48421699999994
 20
146.5352399999999
 30
0.0
 40
0.145
 50
0.0
 51
180.0
  0
ARC
  5
AEE4
  8
SUNPO
  6
BYBLOCK
 10
529.48421699999994
 20
146.5352399999999
 30
0.0
 40
0.145
 50
0.0
 51
180.0
  0
ARC
  5
AEE5
  8
SUNPO
  6
BYBLOCK
 10
529.48421699999994
 20
146.5352399999999
 30
0.0
 40
0.145
 50
180.0
 51
0.0
  0
LINE
  5
AEE6
  8
SUNPO
  6
BYBLOCK
 10
554.48421699999994
 20
136.5352399999999
 30
0.0
 11
544.48421699999994
 21
136.5352399999999
 31
0.0
  0
ARC
  5
AEE8
  8
SUNPO
  6
BYBLOCK
 10
544.48421699999994
 20
136.5352399999999
 30
0.0
 40
0.145
 50
0.0
 51
180.0
  0
ARC
  5
AEE9
  8
SUNPO
  6
BYBLOCK
 10
544.48421699999994
 20
136.5352399999999
 30
0.0
 40
0.145
 50
180.0
 51
0.0
  0
ARC
  5
AEEA
  8
SUNPO
  6
BYBLOCK
 10
544.48421699999994
 20
136.5352399999999
 30
0.0
 40
0.145
 50
180.0
 51
0.0
  0
ARC
  5
AEEB
  8
SUNPO
  6
BYBLOCK
 10
544.48421699999994
 20
136.5352399999999
 30
0.0
 40
0.145
 50
0.0
 51
180.0
  0
TEXT
  5
AEEC
  8
SUNPO
  6
CONTINUOUS
 10
548.02588300000002
 20
137.0352399999999
 30
0.0
 40
2.5
  1
10
  7
MX_NOTE_STANDARD
  0
ARC
  5
AEED
  8
SUNPO
  6
BYBLOCK
 10
544.48421699999994
 20
146.5352399999999
 30
0.0
 40
0.145
 50
180.0
 51
0.0
  0
ARC
  5
AEEE
  8
SUNPO
  6
BYBLOCK
 10
544.48421699999994
 20
146.5352399999999
 30
0.0
 40
0.145
 50
0.0
 51
180.0
  0
ARC
  5
AEEF
  8
SUNPO
  6
BYBLOCK
 10
554.48421699999994
 20
136.5352399999999
 30
0.0
 40
0.145
 50
180.0
 51
0.0
  0
ARC
  5
AEF0
  8
SUNPO
  6
BYBLOCK
 10
554.48421699999994
 20
136.5352399999999
 30
0.0
 40
0.145
 50
0.0
 51
180.0
  0
LINE
  5
AEF1
  8
SUNPO
  6
BYBLOCK
 10
534.62276699999995
 20
176.53524400000001
 30
0.0
 11
564.48421699999994
 21
176.53524400000001
 31
0.0
  0
LINE
  5
AEF2
  8
SUNPO
  6
BYBLOCK
 10
534.62276699999995
 20
176.53524400000001
 30
0.0
 11
564.48421699999994
 21
176.53524400000001
 31
0.0
  0
LINE
  5
AEFB
  8
SUNPO
  6
BYBLOCK
 10
545.98421699999994
 20
163.5352399999999
 30
0.0
 11
564.48421699999994
 21
163.5352399999999
 31
0.0
  0
LINE
  5
AF00
  8
SUNPO
  6
BYBLOCK
 10
564.48421699999994
 20
176.53524400000001
 30
0.0
 11
564.48421699999994
 21
163.5352399999999
 31
0.0
  0
ARC
  5
AF02
  8
SUNPO
  6
BYBLOCK
 10
564.48421699999994
 20
163.5352399999999
 30
0.0
 40
0.145
 50
90.0
 51
270.0
  0
ARC
  5
AF03
  8
SUNPO
  6
BYBLOCK
 10
564.48421699999994
 20
163.5352399999999
 30
0.0
 40
0.145
 50
270.0
 51
90.0
  0
TEXT
  5
AF04
  8
SUNPO
  6
CONTINUOUS
 10
563.98421699999994
 20
168.36857499999991
 30
0.0
 40
2.5
  1
13
 50
90.0
  7
MX_NOTE_STANDARD
  0
ARC
  5
AF06
  8
SUNPO
  6
BYBLOCK
 10
564.48421699999994
 20
176.53524400000001
 30
0.0
 40
0.145
 50
90.0
 51
270.0
  0
ARC
  5
AF07
  8
SUNPO
  6
BYBLOCK
 10
564.48421699999994
 20
176.53524400000001
 30
0.0
 40
0.145
 50
270.0
 51
90.0
  0
ARC
  5
AF08
  8
SUNPO
  6
BYBLOCK
 10
564.48421699999994
 20
176.53524400000001
 30
0.0
 40
0.145
 50
270.0
 51
90.0
  0
ARC
  5
AF09
  8
SUNPO
  6
BYBLOCK
 10
564.48421699999994
 20
176.53524400000001
 30
0.0
 40
0.145
 50
90.0
 51
270.0
  0
TEXT
  5
AF0A
  8
SUNPO
  6
CONTINUOUS
 10
563.98421699999994
 20
190.45190899999989
 30
0.0
 40
2.5
  1
32
 50
90.0
  7
MX_NOTE_STANDARD
  0
LINE
  5
AF0B
  8
SUNPO
  6
BYBLOCK
 10
564.48421699999994
 20
263.53523999999987
 30
0.0
 11
564.48421699999994
 21
208.53523999999999
 31
0.0
  0
LINE
  5
AF0C
  8
SUNPO
  6
BYBLOCK
 10
554.48421699999994
 20
210.0352399999999
 30
0.0
 11
554.48421699999994
 21
273.53523999999999
 31
0.0
  0
LINE
  5
AF0D
  8
SUNPO
  6
BYBLOCK
 10
555.98421699999994
 20
208.53523999999999
 30
0.0
 11
564.48421699999994
 21
208.53523999999999
 31
0.0
  0
LINE
  5
AF0E
  8
SUNPO
  6
BYBLOCK
 10
555.98421699999994
 20
208.53523999999999
 30
0.0
 11
564.48421699999994
 21
208.53523999999999
 31
0.0
  0
ARC
  5
AF14
  8
SUNPO
  6
BYBLOCK
 10
564.48421699999994
 20
208.53523999999999
 30
0.0
 40
0.145
 50
270.0
 51
90.0
  0
ARC
  5
AF15
  8
SUNPO
  6
BYBLOCK
 10
564.48421699999994
 20
208.53523999999999
 30
0.0
 40
0.145
 50
90.0
 51
270.0
  0
ARC
  5
AF16
  8
SUNPO
  6
BYBLOCK
 10
564.48421699999994
 20
208.53523999999999
 30
0.0
 40
0.145
 50
90.0
 51
270.0
  0
ARC
  5
AF17
  8
SUNPO
  6
BYBLOCK
 10
564.48421699999994
 20
208.53523999999999
 30
0.0
 40
0.145
 50
270.0
 51
90.0
  0
TEXT
  5
AF18
  8
SUNPO
  6
CONTINUOUS
 10
563.98421699999994
 20
233.95190699999989
 30
0.0
 40
2.5
  1
55
 50
90.0
  7
MX_NOTE_STANDARD
  0
LINE
  5
AF19
  8
SUNPO
  6
BYBLOCK
 10
514.48421699999994
 20
273.53523999999999
 30
0.0
 11
544.48421699999994
 21
273.53523999999999
 31
0.0
  0
LINE
  5
AF1A
  8
SUNPO
  6
BYBLOCK
 10
514.48421699999994
 20
265.03523999999999
 30
0.0
 11
514.48421699999994
 21
273.53523999999999
 31
0.0
  0
LINE
  5
AF1B
  8
SUNPO
  6
BYBLOCK
 10
514.48421699999994
 20
265.03523999999999
 30
0.0
 11
514.48421699999994
 21
273.53523999999999
 31
0.0
  0
ARC
  5
AF1F
  8
SUNPO
  6
BYBLOCK
 10
514.48421699999994
 20
273.53523999999999
 30
0.0
 40
0.145
 50
180.0
 51
0.0
  0
ARC
  5
AF20
  8
SUNPO
  6
BYBLOCK
 10
514.48421699999994
 20
273.53523999999999
 30
0.0
 40
0.145
 50
0.0
 51
180.0
  0
ARC
  5
AF21
  8
SUNPO
  6
BYBLOCK
 10
514.48421699999994
 20
273.53523999999999
 30
0.0
 40
0.145
 50
0.0
 51
180.0
  0
ARC
  5
AF22
  8
SUNPO
  6
BYBLOCK
 10
514.48421699999994
 20
273.53523999999999
 30
0.0
 40
0.145
 50
180.0
 51
0.0
  0
TEXT
  5
AF23
  8
SUNPO
  6
CONTINUOUS
 10
527.60921699999994
 20
274.03523999999987
 30
0.0
 40
2.5
  1
30
  7
MX_NOTE_STANDARD
  0
LINE
  5
AF24
  8
SUNPO
  6
BYBLOCK
 10
544.48421699999994
 20
265.03523999999999
 30
0.0
 11
544.48421699999994
 21
273.53523999999999
 31
0.0
  0
LINE
  5
AF25
  8
SUNPO
  6
BYBLOCK
 10
544.48421699999994
 20
265.03523999999999
 30
0.0
 11
544.48421699999994
 21
273.53523999999999
 31
0.0
  0
LINE
  5
AF26
  8
SUNPO
  6
BYBLOCK
 10
545.98421699999994
 20
263.53523999999987
 30
0.0
 11
564.48421699999994
 21
263.53523999999987
 31
0.0
  0
ARC
  5
AF2A
  8
SUNPO
  6
BYBLOCK
 10
564.48421699999994
 20
263.53523999999987
 30
0.0
 40
0.145
 50
270.0
 51
90.0
  0
ARC
  5
AF2B
  8
SUNPO
  6
BYBLOCK
 10
564.48421699999994
 20
263.53523999999987
 30
0.0
 40
0.145
 50
90.0
 51
270.0
  0
LINE
  5
AF2C
  8
SUNPO
  6
BYBLOCK
 10
544.48421699999994
 20
273.53523999999999
 30
0.0
 11
554.48421699999994
 21
273.53523999999999
 31
0.0
  0
TEXT
  5
AF2D
  8
SUNPO
  6
CONTINUOUS
 10
548.02588300000002
 20
274.03523999999987
 30
0.0
 40
2.5
  1
10
  7
MX_NOTE_STANDARD
  0
ARC
  5
AF2F
  8
SUNPO
  6
BYBLOCK
 10
544.48421699999994
 20
273.53523999999999
 30
0.0
 40
0.145
 50
0.0
 51
180.0
  0
ARC
  5
AF30
  8
SUNPO
  6
BYBLOCK
 10
544.48421699999994
 20
273.53523999999999
 30
0.0
 40
0.145
 50
180.0
 51
0.0
  0
ARC
  5
AF31
  8
SUNPO
  6
BYBLOCK
 10
544.48421699999994
 20
273.53523999999999
 30
0.0
 40
0.145
 50
180.0
 51
0.0
  0
ARC
  5
AF32
  8
SUNPO
  6
BYBLOCK
 10
544.48421699999994
 20
273.53523999999999
 30
0.0
 40
0.145
 50
0.0
 51
180.0
  0
ARC
  5
AF34
  8
SUNPO
  6
BYBLOCK
 10
554.48421699999994
 20
273.53523999999999
 30
0.0
 40
0.145
 50
180.0
 51
0.0
  0
ARC
  5
AF35
  8
SUNPO
  6
BYBLOCK
 10
554.48421699999994
 20
273.53523999999999
 30
0.0
 40
0.145
 50
0.0
 51
180.0
  0
ENDSEC
  0
EOF
