  0
SECTION
  2
HEADER
  9
$ACADVER
  1
AC1009
  9
$INSBASE
 10
0.0
 20
0.0
 30
0.0
  9
$EXTMIN
 10
4.954913210896847
 20
4.995470529227986
 30
-0.0015258207003583
  9
$EXTMAX
 10
755.044182159299
 20
505.02992006331209
 30
0.0000000349246037
  9
$LIMMIN
 10
-210.0
 20
-148.5
  9
$LIMMAX
 10
210.0
 20
148.5
  9
$ORTHOMODE
 70
     0
  9
$REGENMODE
 70
     1
  9
$FILLMODE
 70
     1
  9
$QTEXTMODE
 70
     0
  9
$MIRRTEXT
 70
     1
  9
$DRAGMODE
 70
     2
  9
$LTSCALE
 40
0.5
  9
$OSMODE
 70
  3071
  9
$ATTMODE
 70
     1
  9
$TEXTSIZE
 40
0.2
  9
$TRACEWID
 40
0.05
  9
$TEXTSTYLE
  7
STANDARD
  9
$CLAYER
  8
0
  9
$CELTYPE
  6
CONTINUOUS
  9
$CECOLOR
 62
   256
  9
$DIMSCALE
 40
1.0
  9
$DIMASZ
 40
2.319999999999999
  9
$DIMEXO
 40
1.5
  9
$DIMDLI
 40
3.75
  9
$DIMRND
 40
0.0
  9
$DIMDLE
 40
0.0
  9
$DIMEXE
 40
0.0
  9
$DIMTP
 40
0.0
  9
$DIMTM
 40
0.0
  9
$DIMTXT
 40
2.5
  9
$DIMCEN
 40
2.5
  9
$DIMTSZ
 40
0.0
  9
$DIMTOL
 70
     0
  9
$DIMLIM
 70
     0
  9
$DIMTIH
 70
     0
  9
$DIMTOH
 70
     0
  9
$DIMSE1
 70
     1
  9
$DIMSE2
 70
     1
  9
$DIMTAD
 70
     1
  9
$DIMZIN
 70
     0
  9
$DIMBLK
  1

  9
$DIMASO
 70
     1
  9
$DIMSHO
 70
     1
  9
$DIMPOST
  1

  9
$DIMAPOST
  1

  9
$DIMALT
 70
     0
  9
$DIMALTD
 70
     4
  9
$DIMALTF
 40
0.0394
  9
$DIMLFAC
 40
1.0
  9
$DIMTOFL
 70
     1
  9
$DIMTVP
 40
0.0
  9
$DIMTIX
 70
     0
  9
$DIMSOXD
 70
     0
  9
$DIMSAH
 70
     1
  9
$DIMBLK1
  1

  9
$DIMBLK2
  1

  9
$DIMSTYLE
  2
MXDIMSTYLE
  9
$DIMCLRD
 70
     0
  9
$DIMCLRE
 70
     0
  9
$DIMCLRT
 70
     0
  9
$DIMTFAC
 40
1.0
  9
$DIMGAP
 40
1.0
  9
$LUNITS
 70
     2
  9
$LUPREC
 70
     4
  9
$SKETCHINC
 40
0.1
  9
$FILLETRAD
 40
0.0
  9
$AUNITS
 70
     0
  9
$AUPREC
 70
     0
  9
$MENU
  1
acad
  9
$ELEVATION
 40
0.0
  9
$PELEVATION
 40
0.0
  9
$THICKNESS
 40
0.0
  9
$LIMCHECK
 70
     0
  9
$BLIPMODE
 70
     0
  9
$CHAMFERA
 40
0.0
  9
$CHAMFERB
 40
0.0
  9
$SKPOLY
 70
     0
  9
$TDCREATE
 40
2452200.7321329978
  9
$TDUPDATE
 40
2454004.4792954861
  9
$TDINDWG
 40
0.0181643519
  9
$TDUSRTIMER
 40
0.0181636574
  9
$USRTIMER
 70
     1
  9
$ANGBASE
 50
0.0
  9
$ANGDIR
 70
     0
  9
$PDMODE
 70
     3
  9
$PDSIZE
 40
-100.0
  9
$PLINEWID
 40
0.0
  9
$COORDS
 70
     2
  9
$SPLFRAME
 70
     0
  9
$SPLINETYPE
 70
     6
  9
$SPLINESEGS
 70
     8
  9
$ATTDIA
 70
     0
  9
$ATTREQ
 70
     1
  9
$HANDLING
 70
 22529
  9
$HANDSEED
  5
A218
  9
$SURFTAB1
 70
     6
  9
$SURFTAB2
 70
     6
  9
$SURFTYPE
 70
     6
  9
$SURFU
 70
     6
  9
$SURFV
 70
     6
  9
$UCSNAME
  2

  9
$UCSORG
 10
0.0
 20
0.0
 30
0.0
  9
$UCSXDIR
 10
1.0
 20
0.0
 30
0.0
  9
$UCSYDIR
 10
0.0
 20
1.0
 30
0.0
  9
$PUCSNAME
  2

  9
$PUCSORG
 10
0.0
 20
0.0
 30
0.0
  9
$PUCSXDIR
 10
1.0
 20
0.0
 30
0.0
  9
$PUCSYDIR
 10
0.0
 20
1.0
 30
0.0
  9
$USERI1
 70
     0
  9
$USERI2
 70
     0
  9
$USERI3
 70
     0
  9
$USERI4
 70
     0
  9
$USERI5
 70
     0
  9
$USERR1
 40
0.0
  9
$USERR2
 40
0.0
  9
$USERR3
 40
0.0
  9
$USERR4
 40
0.0
  9
$USERR5
 40
0.0
  9
$WORLDVIEW
 70
     1
  9
$SHADEDGE
 70
     3
  9
$SHADEDIF
 70
    70
  9
$TILEMODE
 70
     1
  9
$MAXACTVP
 70
    16
  9
$PLIMCHECK
 70
     0
  9
$PEXTMIN
 10
1.0000000000000000E+020
 20
1.0000000000000000E+020
 30
1.0000000000000000E+020
  9
$PEXTMAX
 10
-1.0000000000000000E+020
 20
-1.0000000000000000E+020
 30
-1.0000000000000000E+020
  9
$PLIMMIN
 10
0.0
 20
0.0
  9
$PLIMMAX
 10
12.0
 20
9.0
  9
$UNITMODE
 70
     0
  9
$VISRETAIN
 70
     0
  9
$PLINEGEN
 70
     1
  9
$PSLTSCALE
 70
     0
  0
ENDSEC
  0
SECTION
  2
TABLES
  0
TABLE
  2
VPORT
 70
     2
  0
VPORT
  2
*ACTIVE
 70
     0
 10
0.0
 20
0.0
 11
1.0
 21
1.0
 12
85.091755375059435
 22
439.14483850014642
 13
0.0
 23
0.0
 14
1.0
 24
1.0
 15
0.0
 25
0.0
 16
0.0
 26
0.0
 36
1.0
 17
0.0
 27
0.0
 37
0.0
 40
304.27059987461212
 41
1.464761904761904
 42
50.0
 43
0.0
 44
0.0
 50
0.0
 51
0.0
 71
     0
 72
   100
 73
     1
 74
     0
 75
     0
 76
     0
 77
     0
 78
     0
  0
ENDTAB
  0
TABLE
  2
LTYPE
 70
     3
  0
LTYPE
  2
CONTINUOUS
 70
     0
  3
Solid line
 72
    65
 73
     0
 40
0.0
  0
LTYPE
  2
DASHED
 70
     0
  3
Dashed __ __ __ __ __ __ __ __ __ __ __ __ __ _
 72
    65
 73
     2
 40
19.050000000000001
 49
12.699999999999999
 49
-6.3499999999999988
  0
LTYPE
  2
CENTER
 70
     0
  3
Center ____ _ ____ _ ____ _ ____ _ ____ _ ____
 72
    65
 73
     4
 40
50.799999999999997
 49
31.75
 49
-6.3499999999999988
 49
6.3499999999999988
 49
-6.3499999999999988
  0
ENDTAB
  0
TABLE
  2
LAYER
 70
     4
  0
LAYER
  2
0
 70
     0
 62
     7
  6
CONTINUOUS
  0
LAYER
  2
SUNPO
 70
     0
 62
     1
  6
CONTINUOUS
  0
LAYER
  2
DANMEN
 70
     0
 62
     7
  6
CONTINUOUS
  0
LAYER
  2
WAKU
 70
     0
 62
     3
  6
CONTINUOUS
  0
ENDTAB
  0
TABLE
  2
STYLE
 70
     2
  0
STYLE
  2
STANDARD
 70
     0
 40
0.2
 41
1.0
 50
0.0
 71
     0
 42
0.2
  3
txt.shx
  4
bigfont.shx
  0
STYLE
  2
MX_NOTE_STANDARD
 70
     0
 40
2.5
 41
1.0
 50
0.0
 71
     0
 42
2.5
  3
txt.shx
  4
extfont.shx
  0
ENDTAB
  0
TABLE
  2
VIEW
 70
     0
  0
ENDTAB
  0
TABLE
  2
UCS
 70
     0
  0
ENDTAB
  0
TABLE
  2
APPID
 70
     1
  0
APPID
  2
ACAD
 70
     0
  0
ENDTAB
  0
TABLE
  2
DIMSTYLE
 70
     1
  0
DIMSTYLE
  2
MXDIMSTYLE
 70
     0
  3

  4

  5

  6

  7

 40
1.0
 41
2.5
 42
1.5
 43
3.75
 44
0.0
 45
0.0
 46
0.0
 47
0.0
 48
0.0
140
2.5
141
2.5
142
0.0
143
0.0394
144
1.0
145
0.0
146
1.0
147
1.0
 71
     0
 72
     0
 73
     0
 74
     0
 75
     0
 76
     0
 77
     1
 78
     8
170
     0
171
     4
172
     1
173
     0
174
     0
175
     0
176
     0
177
     0
178
     0
  0
ENDTAB
  0
ENDSEC
  0
SECTION
  2
BLOCKS
  0
BLOCK
  8
0
  2
$MODEL_SPACE
 70
     0
 10
0.0
 20
0.0
 30
0.0
  3
$MODEL_SPACE
  1

  0
ENDBLK
  5
2BBC
  8
0
  0
BLOCK
 67
     1
  8
0
  2
$PAPER_SPACE
 70
     0
 10
0.0
 20
0.0
 30
0.0
  3
$PAPER_SPACE
  1

  0
ENDBLK
  5
2BB9
 67
     1
  8
0
  0
BLOCK
  8
0
  2
*U0
 70
     1
 10
0.0
 20
0.0
 30
0.0
  3
*U0
  1

  0
SOLID
  5
2AFF
  8
WAKU
  6
CONTINUOUS
 10
371.30514199999988
 20
283.60529100000002
 30
0.0
 11
370.49978199999993
 21
283.53036100000003
 31
0.0
 12
370.87498699999998
 22
283.52044899999999
 32
0.0
 13
370.87498699999998
 23
283.52044899999999
 33
0.0
  0
SOLID
  5
2B00
  8
WAKU
  6
CONTINUOUS
 10
370.193309
 20
283.63466399999999
 30
0.0
 11
370.49978199999993
 21
283.53036100000003
 31
0.0
 12
371.30514199999988
 22
283.60529100000002
 32
0.0
 13
371.30514199999988
 23
283.60529100000002
 33
0.0
  0
SOLID
  5
2B01
  8
WAKU
  6
CONTINUOUS
 10
371.77444800000001
 20
283.78177299999987
 30
0.0
 11
370.193309
 21
283.63466399999999
 31
0.0
 12
371.30514199999988
 22
283.60529100000002
 32
0.0
 13
371.30514199999988
 23
283.60529100000002
 33
0.0
  0
SOLID
  5
2B02
  8
WAKU
  6
CONTINUOUS
 10
369.96682399999997
 20
283.82952599999987
 30
0.0
 11
370.193309
 21
283.63466399999999
 31
0.0
 12
371.77444800000001
 22
283.78177299999987
 32
0.0
 13
371.77444800000001
 23
283.78177299999987
 33
0.0
  0
SOLID
  5
2B03
  8
WAKU
  6
CONTINUOUS
 10
370.59417699999989
 20
283.90949799999999
 30
0.0
 11
369.96682399999997
 21
283.82952599999987
 31
0.0
 12
371.77444800000001
 22
283.78177299999987
 32
0.0
 13
371.77444800000001
 23
283.78177299999987
 33
0.0
  0
SOLID
  5
2B04
  8
WAKU
  6
CONTINUOUS
 10
370.90129400000001
 20
283.91486300000003
 30
0.0
 11
370.59417699999989
 21
283.90949799999999
 31
0.0
 12
371.77444800000001
 22
283.78177299999987
 32
0.0
 13
371.77444800000001
 23
283.78177299999987
 33
0.0
  0
SOLID
  5
2B05
  8
WAKU
  6
CONTINUOUS
 10
370.39292699999987
 20
283.968568
 30
0.0
 11
369.96682399999997
 21
283.82952599999987
 31
0.0
 12
370.59417699999989
 22
283.90949799999999
 32
0.0
 13
370.59417699999989
 23
283.90949799999999
 33
0.0
  0
SOLID
  5
2B06
  8
WAKU
  6
CONTINUOUS
 10
371.2969839999999
 20
284.01036800000003
 30
0.0
 11
370.90129400000001
 21
283.91486300000003
 31
0.0
 12
371.77444800000001
 22
283.78177299999987
 32
0.0
 13
371.77444800000001
 23
283.78177299999987
 33
0.0
  0
SOLID
  5
2B07
  8
WAKU
  6
CONTINUOUS
 10
372.26566600000001
 20
284.04341099999988
 30
0.0
 11
371.2969839999999
 21
284.01036800000003
 31
0.0
 12
371.77444800000001
 22
283.78177299999987
 32
0.0
 13
371.77444800000001
 23
283.78177299999987
 33
0.0
  0
SOLID
  5
2B08
  8
WAKU
  6
CONTINUOUS
 10
370.27517699999993
 20
284.06647599999991
 30
0.0
 11
369.96682399999997
 21
283.82952599999987
 31
0.0
 12
370.39292699999987
 22
283.968568
 32
0.0
 13
370.39292699999987
 23
283.968568
 33
0.0
  0
SOLID
  5
2B09
  8
WAKU
  6
CONTINUOUS
 10
369.82864599999988
 20
284.10779100000002
 30
0.0
 11
369.96682399999997
 21
283.82952599999987
 31
0.0
 12
370.27517699999993
 22
284.06647599999991
 32
0.0
 13
370.27517699999993
 23
284.06647599999991
 33
0.0
  0
SOLID
  5
2B0A
  8
WAKU
  6
CONTINUOUS
 10
370.70945799999993
 20
284.14239700000002
 30
0.0
 11
369.82864599999988
 21
284.10779100000002
 31
0.0
 12
370.27517699999993
 22
284.06647599999991
 32
0.0
 13
370.27517699999993
 23
284.06647599999991
 33
0.0
  0
SOLID
  5
2B0B
  8
WAKU
  6
CONTINUOUS
 10
371.75188199999991
 20
284.20279799999992
 30
0.0
 11
371.2969839999999
 21
284.01036800000003
 31
0.0
 12
372.26566600000001
 22
284.04341099999988
 32
0.0
 13
372.26566600000001
 23
284.04341099999988
 33
0.0
  0
SOLID
  5
2B0C
  8
WAKU
  6
CONTINUOUS
 10
369.55038100000002
 20
284.245969
 30
0.0
 11
369.82864599999988
 21
284.10779100000002
 31
0.0
 12
370.70945799999993
 22
284.14239700000002
 32
0.0
 13
370.70945799999993
 23
284.14239700000002
 33
0.0
  0
SOLID
  5
2B0D
  8
WAKU
  6
CONTINUOUS
 10
371.18642799999992
 20
284.31462499999992
 30
0.0
 11
369.55038100000002
 21
284.245969
 31
0.0
 12
370.70945799999993
 22
284.14239700000002
 32
0.0
 13
370.70945799999993
 23
284.14239700000002
 33
0.0
  0
SOLID
  5
2B0E
  8
WAKU
  6
CONTINUOUS
 10
372.76075600000001
 20
284.38059500000003
 30
0.0
 11
371.75188199999991
 21
284.20279799999992
 31
0.0
 12
372.26566600000001
 22
284.04341099999988
 32
0.0
 13
372.26566600000001
 23
284.04341099999988
 33
0.0
  0
SOLID
  5
2B0F
  8
WAKU
  6
CONTINUOUS
 10
370.172911
 20
284.45185600000002
 30
0.0
 11
369.55038100000002
 21
284.245969
 31
0.0
 12
371.18642799999992
 22
284.31462499999992
 32
0.0
 13
371.18642799999992
 23
284.31462499999992
 33
0.0
  0
SOLID
  5
2B10
  8
WAKU
  6
CONTINUOUS
 10
369.35551800000002
 20
284.47245400000003
 30
0.0
 11
369.55038100000002
 21
284.245969
 31
0.0
 12
370.172911
 22
284.45185600000002
 32
0.0
 13
370.172911
 23
284.45185600000002
 33
0.0
  0
SOLID
  5
2B11
  8
WAKU
  6
CONTINUOUS
 10
372.23749700000002
 20
284.48611699999992
 30
0.0
 11
371.75188199999991
 21
284.20279799999992
 31
0.0
 12
372.76075600000001
 22
284.38059500000003
 32
0.0
 13
372.76075600000001
 23
284.38059500000003
 33
0.0
  0
SOLID
  5
2B12
  8
WAKU
  6
CONTINUOUS
 10
370.68139500000001
 20
284.53919500000001
 30
0.0
 11
370.172911
 21
284.45185600000002
 31
0.0
 12
371.18642799999992
 22
284.31462499999992
 32
0.0
 13
371.18642799999992
 23
284.31462499999992
 33
0.0
  0
SOLID
  5
2B13
  8
WAKU
  6
CONTINUOUS
 10
369.787305
 20
284.55393500000002
 30
0.0
 11
369.35551800000002
 21
284.47245400000003
 31
0.0
 12
370.172911
 22
284.45185600000002
 32
0.0
 13
370.172911
 23
284.45185600000002
 33
0.0
  0
SOLID
  5
2B14
  8
WAKU
  6
CONTINUOUS
 10
371.68776999999989
 20
284.57654500000001
 30
0.0
 11
370.68139500000001
 21
284.53919500000001
 31
0.0
 12
371.18642799999992
 22
284.31462499999992
 32
0.0
 13
371.18642799999992
 23
284.31462499999992
 33
0.0
  0
SOLID
  5
2B15
  8
WAKU
  6
CONTINUOUS
 10
369.68915499999991
 20
284.67243500000001
 30
0.0
 11
369.35551800000002
 21
284.47245400000003
 31
0.0
 12
369.787305
 22
284.55393500000002
 32
0.0
 13
369.787305
 23
284.55393500000002
 33
0.0
  0
SOLID
  5
2B16
  8
WAKU
  6
CONTINUOUS
 10
369.251215
 20
284.77892800000001
 30
0.0
 11
369.35551800000002
 21
284.47245400000003
 31
0.0
 12
369.68915499999991
 22
284.67243500000001
 32
0.0
 13
369.68915499999991
 23
284.67243500000001
 33
0.0
  0
SOLID
  5
2B17
  8
WAKU
  6
CONTINUOUS
 10
373.24153200000001
 20
284.78094099999998
 30
0.0
 11
372.23749700000002
 21
284.48611699999992
 31
0.0
 12
372.76075600000001
 22
284.38059500000003
 32
0.0
 13
372.76075600000001
 23
284.38059500000003
 33
0.0
  0
SOLID
  5
2B18
  8
WAKU
  6
CONTINUOUS
 10
371.31226299999992
 20
284.8103319999999
 30
0.0
 11
370.68139500000001
 21
284.53919500000001
 31
0.0
 12
371.68776999999989
 22
284.57654500000001
 32
0.0
 13
371.68776999999989
 23
284.57654500000001
 33
0.0
  0
SOLID
  5
2B19
  8
WAKU
  6
CONTINUOUS
 10
369.63035799999989
 20
284.873087
 30
0.0
 11
369.251215
 21
284.77892800000001
 31
0.0
 12
369.68915499999991
 22
284.67243500000001
 32
0.0
 13
369.68915499999991
 23
284.67243500000001
 33
0.0
  0
SOLID
  5
2B1A
  8
WAKU
  6
CONTINUOUS
 10
372.194232
 20
284.91809899999998
 30
0.0
 11
371.31226299999992
 21
284.8103319999999
 31
0.0
 12
371.68776999999989
 22
284.57654500000001
 32
0.0
 13
371.68776999999989
 23
284.57654500000001
 33
0.0
  0
SOLID
  5
2B1B
  8
WAKU
  6
CONTINUOUS
 10
370.26016800000002
 20
284.959969
 30
0.0
 11
369.787305
 21
284.55393500000002
 31
0.0
 12
370.172911
 22
284.45185600000002
 32
0.0
 13
370.172911
 23
284.45185600000002
 33
0.0
  0
SOLID
  5
2B1C
  8
WAKU
  6
CONTINUOUS
 10
369.86313899999999
 20
284.98818899999998
 30
0.0
 11
369.787305
 21
284.55393500000002
 31
0.0
 12
370.26016800000002
 22
284.959969
 32
0.0
 13
370.26016800000002
 23
284.959969
 33
0.0
  0
SOLID
  5
2B1D
  8
WAKU
  6
CONTINUOUS
 10
398.19400599999989
 20
285.115385
 30
0.0
 11
397.60605499999991
 21
283.49999999999989
 31
0.0
 12
401.913747
 22
283.49999999999989
 32
0.0
 13
401.913747
 23
283.49999999999989
 33
0.0
  0
SOLID
  5
2B1E
  8
WAKU
  6
CONTINUOUS
 10
401.913747
 20
283.49999999999989
 30
0.0
 11
401.42477599999989
 21
285.115385
 31
0.0
 12
398.19400599999989
 22
285.115385
 32
0.0
 13
398.19400599999989
 23
285.115385
 33
0.0
  0
SOLID
  5
2B1F
  8
WAKU
  6
CONTINUOUS
 10
369.2413029999999
 20
285.15413199999989
 30
0.0
 11
369.251215
 21
284.77892800000001
 31
0.0
 12
369.63035799999989
 22
284.873087
 32
0.0
 13
369.63035799999989
 23
284.873087
 33
0.0
  0
SOLID
  5
2B20
  8
WAKU
  6
CONTINUOUS
 10
369.635696
 20
285.18040400000001
 30
0.0
 11
369.2413029999999
 21
285.15413199999989
 31
0.0
 12
369.63035799999989
 22
284.873087
 32
0.0
 13
369.63035799999989
 23
284.873087
 33
0.0
  0
SOLID
  5
2B21
  8
WAKU
  6
CONTINUOUS
 10
373.69033499999989
 20
285.22974399999998
 30
0.0
 11
372.23749700000002
 21
284.48611699999992
 31
0.0
 12
373.24153200000001
 22
284.78094099999998
 32
0.0
 13
373.24153200000001
 23
284.78094099999998
 33
0.0
  0
SOLID
  5
2B22
  8
WAKU
  6
CONTINUOUS
 10
371.98993999999999
 20
285.25143100000003
 30
0.0
 11
371.31226299999992
 21
284.8103319999999
 31
0.0
 12
372.194232
 22
284.91809899999998
 32
0.0
 13
372.194232
 23
284.91809899999998
 33
0.0
  0
SOLID
  5
2B23
  8
WAKU
  6
CONTINUOUS
 10
373.195965
 20
285.2752319999999
 30
0.0
 11
372.23749700000002
 21
284.48611699999992
 31
0.0
 12
373.69033499999989
 22
285.22974399999998
 32
0.0
 13
373.69033499999989
 23
285.22974399999998
 33
0.0
  0
SOLID
  5
2B24
  8
WAKU
  6
CONTINUOUS
 10
372.68636299999991
 20
285.32617099999987
 30
0.0
 11
371.98993999999999
 21
285.25143100000003
 31
0.0
 12
372.194232
 22
284.91809899999998
 32
0.0
 13
372.194232
 23
284.91809899999998
 33
0.0
  0
SOLID
  5
2B25
  8
WAKU
  6
CONTINUOUS
 10
370.03529300000002
 20
285.46515399999993
 30
0.0
 11
369.86313899999999
 21
284.98818899999998
 31
0.0
 12
370.26016800000002
 22
284.959969
 32
0.0
 13
370.26016800000002
 23
284.959969
 33
0.0
  0
SOLID
  5
2B26
  8
WAKU
  6
CONTINUOUS
 10
369.73149000000001
 20
285.57602099999991
 30
0.0
 11
369.2413029999999
 21
285.15413199999989
 31
0.0
 12
369.635696
 22
285.18040400000001
 32
0.0
 13
369.635696
 23
285.18040400000001
 33
0.0
  0
SOLID
  5
2B27
  8
WAKU
  6
CONTINUOUS
 10
369.32614599999988
 20
285.58428700000002
 30
0.0
 11
369.2413029999999
 21
285.15413199999989
 31
0.0
 12
369.73149000000001
 22
285.57602099999991
 32
0.0
 13
369.73149000000001
 23
285.57602099999991
 33
0.0
  0
SOLID
  5
2B28
  8
WAKU
  6
CONTINUOUS
 10
370.53071199999999
 20
285.59087499999993
 30
0.0
 11
370.03529300000002
 21
285.46515399999993
 31
0.0
 12
370.26016800000002
 22
284.959969
 32
0.0
 13
370.26016800000002
 23
284.959969
 33
0.0
  0
SOLID
  5
2B29
  8
WAKU
  6
CONTINUOUS
 10
388.45220799999993
 20
283.49999999999989
 30
0.0
 11
389.23614399999991
 21
285.65384599999987
 31
0.0
 12
383.85152900000003
 22
285.65384599999987
 32
0.0
 13
383.85152900000003
 23
285.65384599999987
 33
0.0
  0
SOLID
  5
2B2A
  8
WAKU
  6
CONTINUOUS
 10
383.85152900000003
 20
285.65384599999987
 30
0.0
 11
383.06759299999999
 21
283.49999999999989
 31
0.0
 12
388.45220799999993
 22
283.49999999999989
 32
0.0
 13
388.45220799999993
 23
283.49999999999989
 33
0.0
  0
SOLID
  5
2B2B
  8
WAKU
  6
CONTINUOUS
 10
391.17460599999998
 20
285.65384599999987
 30
0.0
 11
390.39067
 21
283.49999999999989
 31
0.0
 12
395.45220799999993
 22
283.49999999999989
 32
0.0
 13
395.45220799999993
 23
283.49999999999989
 33
0.0
  0
SOLID
  5
2B2C
  8
WAKU
  6
CONTINUOUS
 10
395.45220799999993
 20
283.49999999999989
 30
0.0
 11
395.159221
 21
285.65384599999987
 31
0.0
 12
391.17460599999998
 22
285.65384599999987
 32
0.0
 13
391.17460599999998
 23
285.65384599999987
 33
0.0
  0
SOLID
  5
2B2D
  8
WAKU
  6
CONTINUOUS
 10
404.85152900000003
 20
285.65384599999987
 30
0.0
 11
404.06759299999999
 21
283.49999999999989
 31
0.0
 12
409.45220799999993
 22
283.49999999999989
 32
0.0
 13
409.45220799999993
 23
283.49999999999989
 33
0.0
  0
SOLID
  5
2B2E
  8
WAKU
  6
CONTINUOUS
 10
409.45220799999993
 20
283.49999999999989
 30
0.0
 11
409.15922099999989
 21
285.65384599999987
 31
0.0
 12
404.85152900000003
 22
285.65384599999987
 32
0.0
 13
404.85152900000003
 23
285.65384599999987
 33
0.0
  0
SOLID
  5
2B2F
  8
WAKU
  6
CONTINUOUS
 10
374.09068100000002
 20
285.71051999999997
 30
0.0
 11
373.195965
 21
285.2752319999999
 31
0.0
 12
373.69033499999989
 22
285.22974399999998
 32
0.0
 13
373.69033499999989
 23
285.22974399999998
 33
0.0
  0
SOLID
  5
2B30
  8
WAKU
  6
CONTINUOUS
 10
373.14526599999988
 20
285.78508900000003
 30
0.0
 11
371.98993999999999
 21
285.25143100000003
 31
0.0
 12
372.68636299999991
 22
285.32617099999987
 32
0.0
 13
372.68636299999991
 23
285.32617099999987
 33
0.0
  0
SOLID
  5
2B31
  8
WAKU
  6
CONTINUOUS
 10
372.64629600000001
 20
285.82550600000002
 30
0.0
 11
371.98993999999999
 21
285.25143100000003
 31
0.0
 12
373.14526599999988
 22
285.78508900000003
 32
0.0
 13
373.14526599999988
 23
285.78508900000003
 33
0.0
  0
SOLID
  5
2B32
  8
WAKU
  6
CONTINUOUS
 10
370.29715599999997
 20
285.96650899999992
 30
0.0
 11
370.03529300000002
 21
285.46515399999993
 31
0.0
 12
370.53071199999999
 22
285.59087499999993
 32
0.0
 13
370.53071199999999
 23
285.59087499999993
 33
0.0
  0
SOLID
  5
2B33
  8
WAKU
  6
CONTINUOUS
 10
369.923519
 20
286.03102799999988
 30
0.0
 11
369.32614599999988
 21
285.58428700000002
 31
0.0
 12
369.73149000000001
 22
285.57602099999991
 32
0.0
 13
369.73149000000001
 23
285.57602099999991
 33
0.0
  0
SOLID
  5
2B34
  8
WAKU
  6
CONTINUOUS
 10
369.50262700000002
 20
286.05359299999998
 30
0.0
 11
369.32614599999988
 21
285.58428700000002
 31
0.0
 12
369.923519
 22
286.03102799999988
 32
0.0
 13
369.923519
 23
286.03102799999988
 33
0.0
  0
SOLID
  5
2B35
  8
WAKU
  6
CONTINUOUS
 10
379.39714500000002
 20
286.13846199999989
 30
0.0
 11
378.436824
 21
283.49999999999989
 31
0.0
 12
379.51374700000002
 22
283.49999999999989
 32
0.0
 13
379.51374700000002
 23
283.49999999999989
 33
0.0
  0
SOLID
  5
2B36
  8
WAKU
  6
CONTINUOUS
 10
380.49366700000002
 20
286.19230800000003
 30
0.0
 11
379.39714500000002
 21
286.13846199999989
 31
0.0
 12
379.51374700000002
 22
283.49999999999989
 32
0.0
 13
379.51374700000002
 23
283.49999999999989
 33
0.0
  0
SOLID
  5
2B37
  8
WAKU
  6
CONTINUOUS
 10
382.75520499999988
 20
286.19230800000003
 30
0.0
 11
380.49366700000002
 21
286.19230800000003
 31
0.0
 12
381.775285
 22
283.49999999999989
 32
0.0
 13
381.775285
 23
283.49999999999989
 33
0.0
  0
SOLID
  5
2B38
  8
WAKU
  6
CONTINUOUS
 10
377.15520499999991
 20
286.19230800000003
 30
0.0
 11
380.49366700000002
 21
286.19230800000003
 31
0.0
 12
382.75520499999988
 22
286.19230800000003
 32
0.0
 13
382.75520499999988
 23
286.19230800000003
 33
0.0
  0
SOLID
  5
2B39
  8
WAKU
  6
CONTINUOUS
 10
377.15520499999991
 20
286.19230800000003
 30
0.0
 11
379.39714500000002
 21
286.13846199999989
 31
0.0
 12
380.49366700000002
 22
286.19230800000003
 32
0.0
 13
380.49366700000002
 23
286.19230800000003
 33
0.0
  0
SOLID
  5
2B3A
  8
WAKU
  6
CONTINUOUS
 10
377.15520499999991
 20
286.19230800000003
 30
0.0
 11
376.17528499999997
 21
283.49999999999989
 31
0.0
 12
379.39714500000002
 22
286.13846199999989
 32
0.0
 13
379.39714500000002
 23
286.13846199999989
 33
0.0
  0
SOLID
  5
2B3B
  8
WAKU
  6
CONTINUOUS
 10
374.427865
 20
286.20560899999992
 30
0.0
 11
373.195965
 21
285.2752319999999
 31
0.0
 12
374.09068100000002
 22
285.71051999999997
 32
0.0
 13
374.09068100000002
 23
285.71051999999997
 33
0.0
  0
SOLID
  5
2B3C
  8
WAKU
  6
CONTINUOUS
 10
373.98505
 20
286.23371800000001
 30
0.0
 11
373.195965
 21
285.2752319999999
 31
0.0
 12
374.427865
 22
286.20560899999992
 32
0.0
 13
374.427865
 23
286.20560899999992
 33
0.0
  0
SOLID
  5
2B3D
  8
WAKU
  6
CONTINUOUS
 10
370.97189600000002
 20
286.26847099999992
 30
0.0
 11
370.29715599999997
 21
285.96650899999992
 31
0.0
 12
370.53071199999999
 22
285.59087499999993
 32
0.0
 13
370.53071199999999
 23
285.59087499999993
 33
0.0
  0
SOLID
  5
2B3E
  8
WAKU
  6
CONTINUOUS
 10
373.553316
 20
286.27722899999992
 30
0.0
 11
372.64629600000001
 21
285.82550600000002
 31
0.0
 12
373.14526599999988
 22
285.78508900000003
 32
0.0
 13
373.14526599999988
 23
285.78508900000003
 33
0.0
  0
SOLID
  5
2B3F
  8
WAKU
  6
CONTINUOUS
 10
370.63867099999987
 20
286.47300000000001
 30
0.0
 11
370.29715599999997
 21
285.96650899999992
 31
0.0
 12
370.97189600000002
 22
286.26847099999992
 32
0.0
 13
370.97189600000002
 23
286.26847099999992
 33
0.0
  0
SOLID
  5
2B40
  8
WAKU
  6
CONTINUOUS
 10
373.22023799999988
 20
286.48191999999989
 30
0.0
 11
372.64629600000001
 21
285.82550600000002
 31
0.0
 12
373.553316
 22
286.27722899999992
 32
0.0
 13
373.553316
 23
286.27722899999992
 33
0.0
  0
SOLID
  5
2B41
  8
WAKU
  6
CONTINUOUS
 10
370.20703500000002
 20
286.51657
 30
0.0
 11
369.50262700000002
 21
286.05359299999998
 31
0.0
 12
369.923519
 22
286.03102799999988
 32
0.0
 13
369.923519
 23
286.03102799999988
 33
0.0
  0
SOLID
  5
2B42
  8
WAKU
  6
CONTINUOUS
 10
369.76426499999991
 20
286.54481199999998
 30
0.0
 11
369.50262700000002
 21
286.05359299999998
 31
0.0
 12
370.20703500000002
 22
286.51657
 32
0.0
 13
370.20703500000002
 23
286.51657
 33
0.0
  0
SOLID
  5
2B43
  8
WAKU
  6
CONTINUOUS
 10
374.689503
 20
286.69682799999998
 30
0.0
 11
373.98505
 21
286.23371800000001
 31
0.0
 12
374.427865
 22
286.20560899999992
 32
0.0
 13
374.427865
 23
286.20560899999992
 33
0.0
  0
SOLID
  5
2B44
  8
WAKU
  6
CONTINUOUS
 10
374.268507
 20
286.71927799999992
 30
0.0
 11
373.98505
 21
286.23371800000001
 31
0.0
 12
374.689503
 22
286.69682799999998
 32
0.0
 13
374.689503
 23
286.69682799999998
 33
0.0
  0
SOLID
  5
2B45
  8
WAKU
  6
CONTINUOUS
 10
373.89484299999998
 20
286.78369300000003
 30
0.0
 11
373.22023799999988
 21
286.48191999999989
 31
0.0
 12
373.553316
 22
286.27722899999992
 32
0.0
 13
373.553316
 23
286.27722899999992
 33
0.0
  0
SOLID
  5
2B46
  8
WAKU
  6
CONTINUOUS
 10
371.54582699999992
 20
286.92489299999988
 30
0.0
 11
370.63867099999987
 21
286.47300000000001
 31
0.0
 12
370.97189600000002
 22
286.26847099999992
 32
0.0
 13
370.97189600000002
 23
286.26847099999992
 33
0.0
  0
SOLID
  5
2B47
  8
WAKU
  6
CONTINUOUS
 10
371.04671999999999
 20
286.96517399999999
 30
0.0
 11
370.63867099999987
 21
286.47300000000001
 31
0.0
 12
371.54582699999992
 22
286.92489299999988
 32
0.0
 13
371.54582699999992
 23
286.92489299999988
 33
0.0
  0
SOLID
  5
2B48
  8
WAKU
  6
CONTINUOUS
 10
370.10144899999989
 20
287.03990099999987
 30
0.0
 11
369.76426499999991
 21
286.54481199999998
 31
0.0
 12
370.20703500000002
 22
286.51657
 32
0.0
 13
370.20703500000002
 23
286.51657
 33
0.0
  0
SOLID
  5
2B49
  8
WAKU
  6
CONTINUOUS
 10
373.66135299999991
 20
287.15953400000001
 30
0.0
 11
373.22023799999988
 21
286.48191999999989
 31
0.0
 12
373.89484299999998
 22
286.78369300000003
 32
0.0
 13
373.89484299999998
 23
286.78369300000003
 33
0.0
  0
SOLID
  5
2B4A
  8
WAKU
  6
CONTINUOUS
 10
374.86598399999991
 20
287.166134
 30
0.0
 11
374.268507
 21
286.71927799999992
 31
0.0
 12
374.689503
 22
286.69682799999998
 32
0.0
 13
374.689503
 23
286.69682799999998
 33
0.0
  0
SOLID
  5
2B4B
  8
WAKU
  6
CONTINUOUS
 10
374.46071000000001
 20
287.17424799999992
 30
0.0
 11
374.268507
 21
286.71927799999992
 31
0.0
 12
374.86598399999991
 22
287.166134
 32
0.0
 13
374.86598399999991
 23
287.166134
 33
0.0
  0
SOLID
  5
2B4C
  8
WAKU
  6
CONTINUOUS
 10
374.15673199999992
 20
287.28502999999989
 30
0.0
 11
373.66135299999991
 21
287.15953400000001
 31
0.0
 12
373.89484299999998
 22
286.78369300000003
 32
0.0
 13
373.89484299999998
 23
286.78369300000003
 33
0.0
  0
SOLID
  5
2B4D
  8
WAKU
  6
CONTINUOUS
 10
371.50563199999988
 20
287.424128
 30
0.0
 11
371.04671999999999
 21
286.96517399999999
 31
0.0
 12
371.54582699999992
 22
286.92489299999988
 32
0.0
 13
371.54582699999992
 23
286.92489299999988
 33
0.0
  0
SOLID
  5
2B4E
  8
WAKU
  6
CONTINUOUS
 10
370.99609800000002
 20
287.47510799999998
 30
0.0
 11
370.10144899999989
 21
287.03990099999987
 31
0.0
 12
370.20703500000002
 22
286.51657
 32
0.0
 13
370.20703500000002
 23
286.51657
 33
0.0
  0
SOLID
  5
2B4F
  8
WAKU
  6
CONTINUOUS
 10
372.202181
 20
287.49899099999999
 30
0.0
 11
371.50563199999988
 21
287.424128
 31
0.0
 12
371.54582699999992
 22
286.92489299999988
 32
0.0
 13
371.54582699999992
 23
286.92489299999988
 33
0.0
  0
SOLID
  5
2B50
  8
WAKU
  6
CONTINUOUS
 10
370.50179500000002
 20
287.52067699999992
 30
0.0
 11
370.10144899999989
 21
287.03990099999987
 31
0.0
 12
370.99609800000002
 22
287.47510799999998
 32
0.0
 13
370.99609800000002
 23
287.47510799999998
 33
0.0
  0
SOLID
  5
2B51
  8
WAKU
  6
CONTINUOUS
 10
374.55636099999998
 20
287.56986399999988
 30
0.0
 11
374.46071000000001
 21
287.17424799999992
 31
0.0
 12
374.86598399999991
 22
287.166134
 32
0.0
 13
374.86598399999991
 23
287.166134
 33
0.0
  0
SOLID
  5
2B52
  8
WAKU
  6
CONTINUOUS
 10
393.17245600000001
 20
287.592308
 30
0.0
 11
391.70356499999991
 21
286.51538499999998
 31
0.0
 12
392.78048799999999
 22
286.51538499999998
 32
0.0
 13
392.78048799999999
 23
286.51538499999998
 33
0.0
  0
SOLID
  5
2B53
  8
WAKU
  6
CONTINUOUS
 10
395.86476299999993
 20
287.592308
 30
0.0
 11
395.159221
 21
285.65384599999987
 31
0.0
 12
395.45220799999993
 22
283.49999999999989
 32
0.0
 13
395.45220799999993
 23
283.49999999999989
 33
0.0
  0
SOLID
  5
2B54
  8
WAKU
  6
CONTINUOUS
 10
396.941687
 20
287.592308
 30
0.0
 11
393.17245600000001
 21
287.592308
 31
0.0
 12
395.86476299999993
 22
287.592308
 32
0.0
 13
395.86476299999993
 23
287.592308
 33
0.0
  0
SOLID
  5
2B55
  8
WAKU
  6
CONTINUOUS
 10
396.941687
 20
287.592308
 30
0.0
 11
395.86476299999993
 21
287.592308
 31
0.0
 12
395.45220799999993
 22
283.49999999999989
 32
0.0
 13
395.45220799999993
 23
283.49999999999989
 33
0.0
  0
SOLID
  5
2B56
  8
WAKU
  6
CONTINUOUS
 10
392.09553299999988
 20
287.592308
 30
0.0
 11
396.941687
 21
287.592308
 31
0.0
 12
397.74937899999998
 22
287.592308
 32
0.0
 13
397.74937899999998
 23
287.592308
 33
0.0
  0
SOLID
  5
2B57
  8
WAKU
  6
CONTINUOUS
 10
392.09553299999988
 20
287.592308
 30
0.0
 11
393.17245600000001
 21
287.592308
 31
0.0
 12
396.941687
 22
287.592308
 32
0.0
 13
396.941687
 23
287.592308
 33
0.0
  0
SOLID
  5
2B58
  8
WAKU
  6
CONTINUOUS
 10
392.09553299999988
 20
287.592308
 30
0.0
 11
391.70356499999991
 21
286.51538499999998
 31
0.0
 12
393.17245600000001
 22
287.592308
 32
0.0
 13
393.17245600000001
 23
287.592308
 33
0.0
  0
SOLID
  5
2B59
  8
WAKU
  6
CONTINUOUS
 10
374.950827
 20
287.59628900000001
 30
0.0
 11
374.55636099999998
 21
287.56986399999988
 31
0.0
 12
374.86598399999991
 22
287.166134
 32
0.0
 13
374.86598399999991
 23
287.166134
 33
0.0
  0
SOLID
  5
2B5A
  8
WAKU
  6
CONTINUOUS
 10
374.32892500000003
 20
287.76198699999998
 30
0.0
 11
373.66135299999991
 21
287.15953400000001
 31
0.0
 12
374.15673199999992
 22
287.28502999999989
 32
0.0
 13
374.15673199999992
 23
287.28502999999989
 33
0.0
  0
SOLID
  5
2B5B
  8
WAKU
  6
CONTINUOUS
 10
373.93207100000001
 20
287.79040199999997
 30
0.0
 11
373.66135299999991
 21
287.15953400000001
 31
0.0
 12
374.32892500000003
 22
287.76198699999998
 32
0.0
 13
374.32892500000003
 23
287.76198699999998
 33
0.0
  0
SOLID
  5
2B5C
  8
WAKU
  6
CONTINUOUS
 10
371.99778300000003
 20
287.83223500000003
 30
0.0
 11
371.50563199999988
 21
287.424128
 31
0.0
 12
372.202181
 22
287.49899099999999
 32
0.0
 13
372.202181
 23
287.49899099999999
 33
0.0
  0
SOLID
  5
2B5D
  8
WAKU
  6
CONTINUOUS
 10
374.561802
 20
287.87725299999988
 30
0.0
 11
374.55636099999998
 21
287.56986399999988
 31
0.0
 12
374.950827
 22
287.59628900000001
 32
0.0
 13
374.950827
 23
287.59628900000001
 33
0.0
  0
SOLID
  5
2B5E
  8
WAKU
  6
CONTINUOUS
 10
372.87987799999991
 20
287.94005699999991
 30
0.0
 11
371.99778300000003
 21
287.83223500000003
 31
0.0
 12
372.202181
 22
287.49899099999999
 32
0.0
 13
372.202181
 23
287.49899099999999
 33
0.0
  0
SOLID
  5
2B5F
  8
WAKU
  6
CONTINUOUS
 10
370.95059900000001
 20
287.96947999999992
 30
0.0
 11
370.50179500000002
 21
287.52067699999992
 31
0.0
 12
370.99609800000002
 22
287.47510799999998
 32
0.0
 13
370.99609800000002
 23
287.47510799999998
 33
0.0
  0
SOLID
  5
2B60
  8
WAKU
  6
CONTINUOUS
 10
374.94091500000002
 20
287.97149300000001
 30
0.0
 11
374.561802
 21
287.87725299999988
 31
0.0
 12
374.950827
 22
287.59628900000001
 32
0.0
 13
374.950827
 23
287.59628900000001
 33
0.0
  0
SOLID
  5
2B61
  8
WAKU
  6
CONTINUOUS
 10
374.502951
 20
288.07791800000001
 30
0.0
 11
374.561802
 21
287.87725299999988
 31
0.0
 12
374.94091500000002
 22
287.97149300000001
 32
0.0
 13
374.94091500000002
 23
287.97149300000001
 33
0.0
  0
SOLID
  5
2B62
  8
WAKU
  6
CONTINUOUS
 10
408.51346299999989
 20
286.83846199999999
 30
0.0
 11
408.98382400000003
 21
288.13076899999987
 31
0.0
 12
405.75305500000002
 22
288.13076899999987
 32
0.0
 13
405.75305500000002
 23
288.13076899999987
 33
0.0
  0
SOLID
  5
2B63
  8
WAKU
  6
CONTINUOUS
 10
405.75305500000002
 20
288.13076899999987
 30
0.0
 11
405.28269399999999
 21
286.83846199999999
 31
0.0
 12
408.51346299999989
 22
286.83846199999999
 32
0.0
 13
408.51346299999989
 23
286.83846199999999
 33
0.0
  0
SOLID
  5
2B64
  8
WAKU
  6
CONTINUOUS
 10
372.50426900000002
 20
288.17382099999992
 30
0.0
 11
371.99778300000003
 21
287.83223500000003
 31
0.0
 12
372.87987799999991
 22
287.94005699999991
 32
0.0
 13
372.87987799999991
 23
287.94005699999991
 33
0.0
  0
SOLID
  5
2B65
  8
WAKU
  6
CONTINUOUS
 10
374.40481
 20
288.19624900000002
 30
0.0
 11
373.93207100000001
 21
287.79040199999997
 31
0.0
 12
374.32892500000003
 22
287.76198699999998
 32
0.0
 13
374.32892500000003
 23
287.76198699999998
 33
0.0
  0
SOLID
  5
2B66
  8
WAKU
  6
CONTINUOUS
 10
374.40481
 20
288.19624900000002
 30
0.0
 11
374.502951
 21
288.07791800000001
 31
0.0
 12
374.94091500000002
 22
287.97149300000001
 32
0.0
 13
374.94091500000002
 23
287.97149300000001
 33
0.0
  0
SOLID
  5
2B67
  8
WAKU
  6
CONTINUOUS
 10
373.510738
 20
288.21123999999998
 30
0.0
 11
372.50426900000002
 21
288.17382099999992
 31
0.0
 12
372.87987799999991
 22
287.94005699999991
 32
0.0
 13
372.87987799999991
 23
287.94005699999991
 33
0.0
  0
SOLID
  5
2B68
  8
WAKU
  6
CONTINUOUS
 10
371.954587
 20
288.26428399999992
 30
0.0
 11
370.95059900000001
 21
287.96947999999992
 31
0.0
 12
370.99609800000002
 22
287.47510799999998
 32
0.0
 13
370.99609800000002
 23
287.47510799999998
 33
0.0
  0
SOLID
  5
2B69
  8
WAKU
  6
CONTINUOUS
 10
374.836612
 20
288.27796699999999
 30
0.0
 11
374.40481
 21
288.19624900000002
 31
0.0
 12
374.94091500000002
 22
287.97149300000001
 32
0.0
 13
374.94091500000002
 23
287.97149300000001
 33
0.0
  0
SOLID
  5
2B6A
  8
WAKU
  6
CONTINUOUS
 10
374.01922899999988
 20
288.29856899999987
 30
0.0
 11
372.50426900000002
 21
288.17382099999992
 31
0.0
 12
373.510738
 22
288.21123999999998
 32
0.0
 13
373.510738
 23
288.21123999999998
 33
0.0
  0
SOLID
  5
2B6B
  8
WAKU
  6
CONTINUOUS
 10
374.01922899999988
 20
288.29856899999987
 30
0.0
 11
374.40481
 21
288.19624900000002
 31
0.0
 12
374.836612
 22
288.27796699999999
 32
0.0
 13
374.836612
 23
288.27796699999999
 33
0.0
  0
SOLID
  5
2B6C
  8
WAKU
  6
CONTINUOUS
 10
374.01922899999988
 20
288.29856899999987
 30
0.0
 11
373.93207100000001
 21
287.79040199999997
 31
0.0
 12
374.40481
 22
288.19624900000002
 32
0.0
 13
374.40481
 23
288.19624900000002
 33
0.0
  0
SOLID
  5
2B6D
  8
WAKU
  6
CONTINUOUS
 10
371.43137400000001
 20
288.36982599999999
 30
0.0
 11
370.95059900000001
 21
287.96947999999992
 31
0.0
 12
371.954587
 22
288.26428399999992
 32
0.0
 13
371.954587
 23
288.26428399999992
 33
0.0
  0
SOLID
  5
2B6E
  8
WAKU
  6
CONTINUOUS
 10
373.00563899999997
 20
288.43576799999988
 30
0.0
 11
372.50426900000002
 21
288.17382099999992
 31
0.0
 12
374.01922899999988
 22
288.29856899999987
 32
0.0
 13
374.01922899999988
 23
288.29856899999987
 33
0.0
  0
SOLID
  5
2B6F
  8
WAKU
  6
CONTINUOUS
 10
374.641749
 20
288.50445200000001
 30
0.0
 11
373.00563899999997
 21
288.43576799999988
 31
0.0
 12
374.01922899999988
 22
288.29856899999987
 32
0.0
 13
374.01922899999988
 23
288.29856899999987
 33
0.0
  0
SOLID
  5
2B70
  8
WAKU
  6
CONTINUOUS
 10
374.641749
 20
288.50445200000001
 30
0.0
 11
374.01922899999988
 21
288.29856899999987
 31
0.0
 12
374.836612
 22
288.27796699999999
 32
0.0
 13
374.836612
 23
288.27796699999999
 33
0.0
  0
SOLID
  5
2B71
  8
WAKU
  6
CONTINUOUS
 10
372.44023499999997
 20
288.54758500000003
 30
0.0
 11
371.43137400000001
 21
288.36982599999999
 31
0.0
 12
371.954587
 22
288.26428399999992
 32
0.0
 13
371.954587
 23
288.26428399999992
 33
0.0
  0
SOLID
  5
2B72
  8
WAKU
  6
CONTINUOUS
 10
373.48263600000001
 20
288.60801400000003
 30
0.0
 11
373.00563899999997
 21
288.43576799999988
 31
0.0
 12
374.641749
 22
288.50445200000001
 32
0.0
 13
374.641749
 23
288.50445200000001
 33
0.0
  0
SOLID
  5
2B73
  8
WAKU
  6
CONTINUOUS
 10
374.36348399999991
 20
288.64263
 30
0.0
 11
373.48263600000001
 21
288.60801400000003
 31
0.0
 12
374.641749
 22
288.50445200000001
 32
0.0
 13
374.641749
 23
288.50445200000001
 33
0.0
  0
SOLID
  5
2B74
  8
WAKU
  6
CONTINUOUS
 10
373.91694100000001
 20
288.683944
 30
0.0
 11
373.48263600000001
 21
288.60801400000003
 31
0.0
 12
374.36348399999991
 22
288.64263
 32
0.0
 13
374.36348399999991
 23
288.64263
 33
0.0
  0
SOLID
  5
2B75
  8
WAKU
  6
CONTINUOUS
 10
371.92646400000001
 20
288.70701000000003
 30
0.0
 11
371.43137400000001
 21
288.36982599999999
 31
0.0
 12
372.44023499999997
 22
288.54758500000003
 32
0.0
 13
372.44023499999997
 23
288.54758500000003
 33
0.0
  0
SOLID
  5
2B76
  8
WAKU
  6
CONTINUOUS
 10
372.89513999999991
 20
288.74006500000002
 30
0.0
 11
371.92646400000001
 21
288.70701000000003
 31
0.0
 12
372.44023499999997
 22
288.54758500000003
 32
0.0
 13
372.44023499999997
 23
288.54758500000003
 33
0.0
  0
SOLID
  5
2B77
  8
WAKU
  6
CONTINUOUS
 10
381.5248509999999
 20
288.7769229999999
 30
0.0
 11
377.15520499999991
 21
286.19230800000003
 31
0.0
 12
382.75520499999988
 22
286.19230800000003
 32
0.0
 13
382.75520499999988
 23
286.19230800000003
 33
0.0
  0
SOLID
  5
2B78
  8
WAKU
  6
CONTINUOUS
 10
380.31131299999993
 20
288.7769229999999
 30
0.0
 11
381.5248509999999
 21
288.7769229999999
 31
0.0
 12
383.69592799999992
 22
288.7769229999999
 32
0.0
 13
383.69592799999992
 23
288.7769229999999
 33
0.0
  0
SOLID
  5
2B79
  8
WAKU
  6
CONTINUOUS
 10
380.31131299999993
 20
288.7769229999999
 30
0.0
 11
377.15520499999991
 21
286.19230800000003
 31
0.0
 12
381.5248509999999
 22
288.7769229999999
 32
0.0
 13
381.5248509999999
 23
288.7769229999999
 33
0.0
  0
SOLID
  5
2B7A
  8
WAKU
  6
CONTINUOUS
 10
373.799148
 20
288.78192899999988
 30
0.0
 11
373.91694100000001
 21
288.683944
 31
0.0
 12
374.36348399999991
 22
288.64263
 32
0.0
 13
374.36348399999991
 23
288.64263
 33
0.0
  0
SOLID
  5
2B7B
  8
WAKU
  6
CONTINUOUS
 10
373.2908569999999
 20
288.83558099999988
 30
0.0
 11
371.92646400000001
 21
288.70701000000003
 31
0.0
 12
372.89513999999991
 22
288.74006500000002
 32
0.0
 13
372.89513999999991
 23
288.74006500000002
 33
0.0
  0
SOLID
  5
2B7C
  8
WAKU
  6
CONTINUOUS
 10
373.59799600000002
 20
288.84090200000003
 30
0.0
 11
373.799148
 21
288.78192899999988
 31
0.0
 12
374.36348399999991
 22
288.64263
 32
0.0
 13
374.36348399999991
 23
288.64263
 33
0.0
  0
SOLID
  5
2B7D
  8
WAKU
  6
CONTINUOUS
 10
401.25888099999997
 20
286.73076900000001
 30
0.0
 11
402.04281700000001
 21
288.884615
 31
0.0
 12
400.96589399999988
 22
288.884615
 32
0.0
 13
400.96589399999988
 23
288.884615
 33
0.0
  0
SOLID
  5
2B7E
  8
WAKU
  6
CONTINUOUS
 10
400.96589399999988
 20
288.884615
 30
0.0
 11
400.18195800000001
 21
286.73076900000001
 31
0.0
 12
401.25888099999997
 22
286.73076900000001
 32
0.0
 13
401.25888099999997
 23
286.73076900000001
 33
0.0
  0
SOLID
  5
2B7F
  8
WAKU
  6
CONTINUOUS
 10
401.42477599999989
 20
285.115385
 30
0.0
 11
403.87358699999999
 21
288.884615
 31
0.0
 12
402.79666299999991
 22
288.884615
 32
0.0
 13
402.79666299999991
 23
288.884615
 33
0.0
  0
SOLID
  5
2B80
  8
WAKU
  6
CONTINUOUS
 10
403.87358699999999
 20
288.884615
 30
0.0
 11
401.42477599999989
 21
285.115385
 31
0.0
 12
401.913747
 22
283.49999999999989
 32
0.0
 13
401.913747
 23
283.49999999999989
 33
0.0
  0
SOLID
  5
2B81
  8
WAKU
  6
CONTINUOUS
 10
399.858881
 20
286.73076900000001
 30
0.0
 11
400.64281699999992
 21
288.884615
 31
0.0
 12
399.56589400000001
 22
288.884615
 32
0.0
 13
399.56589400000001
 23
288.884615
 33
0.0
  0
SOLID
  5
2B82
  8
WAKU
  6
CONTINUOUS
 10
399.56589400000001
 20
288.884615
 30
0.0
 11
398.78195799999997
 21
286.73076900000001
 31
0.0
 12
399.858881
 22
286.73076900000001
 32
0.0
 13
399.858881
 23
286.73076900000001
 33
0.0
  0
SOLID
  5
2B83
  8
WAKU
  6
CONTINUOUS
 10
374.22530599999988
 20
288.92089499999997
 30
0.0
 11
373.59799600000002
 21
288.84090200000003
 31
0.0
 12
374.36348399999991
 22
288.64263
 32
0.0
 13
374.36348399999991
 23
288.64263
 33
0.0
  0
SOLID
  5
2B84
  8
WAKU
  6
CONTINUOUS
 10
372.41768300000001
 20
288.96864799999992
 30
0.0
 11
373.59799600000002
 21
288.84090200000003
 31
0.0
 12
374.22530599999988
 22
288.92089499999997
 32
0.0
 13
374.22530599999988
 23
288.92089499999997
 33
0.0
  0
SOLID
  5
2B85
  8
WAKU
  6
CONTINUOUS
 10
372.41768300000001
 20
288.96864799999992
 30
0.0
 11
373.2908569999999
 21
288.83558099999988
 31
0.0
 12
373.59799600000002
 22
288.84090200000003
 32
0.0
 13
373.59799600000002
 23
288.84090200000003
 33
0.0
  0
SOLID
  5
2B86
  8
WAKU
  6
CONTINUOUS
 10
372.41768300000001
 20
288.96864799999992
 30
0.0
 11
371.92646400000001
 21
288.70701000000003
 31
0.0
 12
373.2908569999999
 22
288.83558099999988
 32
0.0
 13
373.2908569999999
 23
288.83558099999988
 33
0.0
  0
SOLID
  5
2B87
  8
WAKU
  6
CONTINUOUS
 10
373.99882100000002
 20
289.11575699999992
 30
0.0
 11
372.41768300000001
 21
288.96864799999992
 31
0.0
 12
374.22530599999988
 22
288.92089499999997
 32
0.0
 13
374.22530599999988
 23
288.92089499999997
 33
0.0
  0
SOLID
  5
2B88
  8
WAKU
  6
CONTINUOUS
 10
372.88698799999992
 20
289.145129
 30
0.0
 11
372.41768300000001
 21
288.96864799999992
 31
0.0
 12
373.99882100000002
 22
289.11575699999992
 32
0.0
 13
373.99882100000002
 23
289.11575699999992
 33
0.0
  0
SOLID
  5
2B89
  8
WAKU
  6
CONTINUOUS
 10
398.33733100000001
 20
289.20769200000001
 30
0.0
 11
391.28784000000002
 21
287.592308
 31
0.0
 12
392.09553299999988
 22
287.592308
 32
0.0
 13
392.09553299999988
 23
287.592308
 33
0.0
  0
SOLID
  5
2B8A
  8
WAKU
  6
CONTINUOUS
 10
398.33733100000001
 20
289.20769200000001
 30
0.0
 11
392.09553299999988
 21
287.592308
 31
0.0
 12
397.74937899999998
 22
287.592308
 32
0.0
 13
397.74937899999998
 23
287.592308
 33
0.0
  0
SOLID
  5
2B8B
  8
WAKU
  6
CONTINUOUS
 10
391.28784000000002
 20
287.592308
 30
0.0
 11
398.33733100000001
 21
289.20769200000001
 31
0.0
 12
397.52963799999992
 22
289.20769200000001
 32
0.0
 13
397.52963799999992
 23
289.20769200000001
 33
0.0
  0
SOLID
  5
2B8C
  8
WAKU
  6
CONTINUOUS
 10
391.87579199999999
 20
289.20769200000001
 30
0.0
 11
391.28784000000002
 21
287.592308
 31
0.0
 12
397.52963799999992
 22
289.20769200000001
 32
0.0
 13
397.52963799999992
 23
289.20769200000001
 33
0.0
  0
SOLID
  5
2B8D
  8
WAKU
  6
CONTINUOUS
 10
397.52963799999992
 20
289.20769200000001
 30
0.0
 11
392.68348500000002
 21
289.20769200000001
 31
0.0
 12
391.87579199999999
 22
289.20769200000001
 32
0.0
 13
391.87579199999999
 23
289.20769200000001
 33
0.0
  0
SOLID
  5
2B8E
  8
WAKU
  6
CONTINUOUS
 10
393.76040799999993
 20
289.20769200000001
 30
0.0
 11
392.68348500000002
 21
289.20769200000001
 31
0.0
 12
397.52963799999992
 22
289.20769200000001
 32
0.0
 13
397.52963799999992
 23
289.20769200000001
 33
0.0
  0
SOLID
  5
2B8F
  8
WAKU
  6
CONTINUOUS
 10
397.52963799999992
 20
289.20769200000001
 30
0.0
 11
396.45271500000001
 21
289.20769200000001
 31
0.0
 12
393.76040799999993
 22
289.20769200000001
 32
0.0
 13
393.76040799999993
 23
289.20769200000001
 33
0.0
  0
SOLID
  5
2B90
  8
WAKU
  6
CONTINUOUS
 10
373.69234799999992
 20
289.22005999999988
 30
0.0
 11
372.88698799999992
 21
289.145129
 31
0.0
 12
373.99882100000002
 22
289.11575699999992
 32
0.0
 13
373.99882100000002
 23
289.11575699999992
 33
0.0
  0
SOLID
  5
2B91
  8
WAKU
  6
CONTINUOUS
 10
373.31714299999999
 20
289.22997199999998
 30
0.0
 11
372.88698799999992
 21
289.145129
 31
0.0
 12
373.69234799999992
 22
289.22005999999988
 32
0.0
 13
373.69234799999992
 23
289.22005999999988
 33
0.0
  0
SOLID
  5
2B92
  8
WAKU
  6
CONTINUOUS
 10
367.97127599999999
 20
286.22222199999999
 30
0.0
 11
372.24905299999989
 21
290.5
 31
0.0
 12
367.97127599999999
 22
290.5
 32
0.0
 13
367.97127599999999
 23
290.5
 33
0.0
  0
SOLID
  5
2B93
  8
WAKU
  6
CONTINUOUS
 10
409.21900499999998
 20
288.7769229999999
 30
0.0
 11
409.84615400000001
 21
290.5
 31
0.0
 12
406.615385
 22
290.5
 32
0.0
 13
406.615385
 23
290.5
 33
0.0
  0
SOLID
  5
2B94
  8
WAKU
  6
CONTINUOUS
 10
406.615385
 20
290.5
 30
0.0
 11
405.98823599999992
 21
288.7769229999999
 31
0.0
 12
409.21900499999998
 22
288.7769229999999
 32
0.0
 13
409.21900499999998
 23
288.7769229999999
 33
0.0
  0
SOLID
  5
2B95
  8
WAKU
  6
CONTINUOUS
 10
409.15922099999989
 20
285.65384599999987
 30
0.0
 11
412.0
 21
290.5
 31
0.0
 12
410.92307699999992
 22
290.5
 32
0.0
 13
410.92307699999992
 23
290.5
 33
0.0
  0
SOLID
  5
2B96
  8
WAKU
  6
CONTINUOUS
 10
412.0
 20
290.5
 30
0.0
 11
409.15922099999989
 21
285.65384599999987
 31
0.0
 12
409.45220799999993
 22
283.49999999999989
 32
0.0
 13
409.45220799999993
 23
283.49999999999989
 33
0.0
  0
SOLID
  5
2B97
  8
WAKU
  6
CONTINUOUS
 10
378.0959279999999
 20
288.7769229999999
 30
0.0
 11
384.32307700000001
 21
290.5
 31
0.0
 12
378.72307699999988
 22
290.5
 32
0.0
 13
378.72307699999988
 23
290.5
 33
0.0
  0
SOLID
  5
2B98
  8
WAKU
  6
CONTINUOUS
 10
384.32307700000001
 20
290.5
 30
0.0
 11
378.0959279999999
 21
288.7769229999999
 31
0.0
 12
380.31131299999993
 22
288.7769229999999
 32
0.0
 13
380.31131299999993
 23
288.7769229999999
 33
0.0
  0
SOLID
  5
2B99
  8
WAKU
  6
CONTINUOUS
 10
384.32307700000001
 20
290.5
 30
0.0
 11
380.31131299999993
 21
288.7769229999999
 31
0.0
 12
383.69592799999992
 22
288.7769229999999
 32
0.0
 13
383.69592799999992
 23
288.7769229999999
 33
0.0
  0
SOLID
  5
2B9A
  8
WAKU
  6
CONTINUOUS
 10
390.37285099999991
 20
288.7769229999999
 30
0.0
 11
391.0
 21
290.5
 31
0.0
 12
385.615385
 22
290.5
 32
0.0
 13
385.615385
 23
290.5
 33
0.0
  0
SOLID
  5
2B9B
  8
WAKU
  6
CONTINUOUS
 10
385.615385
 20
290.5
 30
0.0
 11
384.98823599999992
 21
288.7769229999999
 31
0.0
 12
390.37285099999991
 22
288.7769229999999
 32
0.0
 13
390.37285099999991
 23
288.7769229999999
 33
0.0
  0
SOLID
  5
2B9C
  8
WAKU
  6
CONTINUOUS
 10
393.76040799999993
 20
289.20769200000001
 30
0.0
 11
394.23076900000001
 21
290.5
 31
0.0
 12
393.15384599999999
 22
290.5
 32
0.0
 13
393.15384599999999
 23
290.5
 33
0.0
  0
SOLID
  5
2B9D
  8
WAKU
  6
CONTINUOUS
 10
393.15384599999999
 20
290.5
 30
0.0
 11
392.68348500000002
 21
289.20769200000001
 31
0.0
 12
393.76040799999993
 22
289.20769200000001
 32
0.0
 13
393.76040799999993
 23
289.20769200000001
 33
0.0
  0
SOLID
  5
2B9E
  8
WAKU
  6
CONTINUOUS
 10
396.45271500000001
 20
289.20769200000001
 30
0.0
 11
398.0
 21
290.5
 31
0.0
 12
396.92307699999992
 22
290.5
 32
0.0
 13
396.92307699999992
 23
290.5
 33
0.0
  0
SOLID
  5
2B9F
  8
WAKU
  6
CONTINUOUS
 10
398.0
 20
290.5
 30
0.0
 11
396.45271500000001
 21
289.20769200000001
 31
0.0
 12
397.52963799999992
 22
289.20769200000001
 32
0.0
 13
397.52963799999992
 23
289.20769200000001
 33
0.0
  0
ENDBLK
  5
2BA1
  8
0
  0
ENDSEC
  0
SECTION
  2
ENTITIES
  0
LINE
  5
43
  8
WAKU
 10
755.0
 20
505.0
 30
0.0
 11
755.0
 21
5.0
 31
0.0
  0
LINE
  5
46
  8
WAKU
 10
5.0
 20
505.0
 30
0.0
 11
5.0
 21
5.0
 31
0.0
  0
LINE
  5
55
  8
WAKU
 10
5.0
 20
5.0
 30
0.0
 11
755.0
 21
5.0
 31
0.0
  0
TEXT
  5
562
  8
WAKU
 10
34.469413000000003
 20
497.67056799999989
 30
0.0
 40
5.0
  1
外動片引き窓 RC枠断面詳細図  S100G015.dxf
 41
0.9769999999999999
  0
LINE
  5
572
  8
WAKU
 10
5.0
 20
495.0
 30
0.0
 11
755.0
 21
495.0
 31
0.0
  0
TEXT
  5
629
  8
WAKU
 10
10.048814999999991
 20
498.43971699999997
 30
0.0
 40
3.0
  1
FNS-100
 41
0.8759999999999998
  0
LINE
  5
CBC
  8
WAKU
  6
CONTINUOUS
 10
733.76040799999998
 20
502.20769199999989
 30
0.0
 11
736.45271500000001
 21
502.20769199999989
 31
0.0
  0
LINE
  5
CBD
  8
WAKU
  6
CONTINUOUS
 10
733.17245600000001
 20
500.592308
 30
0.0
 11
735.86476300000004
 21
500.592308
 31
0.0
  0
LINE
  5
CBE
  8
WAKU
  6
CONTINUOUS
 10
730.39066999999989
 20
496.49999999999989
 30
0.0
 11
735.45220800000004
 21
496.49999999999989
 31
0.0
  0
LINE
  5
CBF
  8
WAKU
  6
CONTINUOUS
 10
735.15922099999989
 20
498.65384599999999
 30
0.0
 11
735.86476300000004
 21
500.592308
 31
0.0
  0
LINE
  5
CC0
  8
WAKU
  6
CONTINUOUS
 10
707.97127599999988
 20
503.5
 30
0.0
 11
712.249053
 21
503.5
 31
0.0
  0
LINE
  5
CC1
  8
WAKU
  6
CONTINUOUS
 10
707.97127599999988
 20
499.22222199999999
 30
0.0
 11
712.249053
 21
503.5
 31
0.0
  0
LINE
  5
CC2
  8
WAKU
  6
CONTINUOUS
 10
707.97127599999988
 20
503.5
 30
0.0
 11
707.97127599999988
 21
499.22222199999999
 31
0.0
  0
LINE
  5
CC3
  8
WAKU
  6
CONTINUOUS
 10
721.52485100000001
 20
501.77692300000001
 30
0.0
 11
723.69592799999987
 21
501.77692300000001
 31
0.0
  0
LINE
  5
CC4
  8
WAKU
  6
CONTINUOUS
 10
718.72307699999999
 20
503.5
 30
0.0
 11
724.32307700000001
 21
503.5
 31
0.0
  0
LINE
  5
CC5
  8
WAKU
  6
CONTINUOUS
 10
720.31131300000004
 20
501.77692300000001
 30
0.0
 11
717.15520500000002
 21
499.19230800000003
 31
0.0
  0
LINE
  5
CC6
  8
WAKU
  6
CONTINUOUS
 10
721.52485100000001
 20
501.77692300000001
 30
0.0
 11
722.75520499999993
 21
499.19230800000003
 31
0.0
  0
LINE
  5
CC7
  8
WAKU
  6
CONTINUOUS
 10
716.17528499999992
 20
496.49999999999989
 30
0.0
 11
717.15520500000002
 21
499.19230800000003
 31
0.0
  0
LINE
  5
CC8
  8
WAKU
  6
CONTINUOUS
 10
719.39714500000002
 20
499.13846199999989
 30
0.0
 11
716.17528499999992
 21
496.49999999999989
 31
0.0
  0
LINE
  5
CC9
  8
WAKU
  6
CONTINUOUS
 10
721.77528499999994
 20
496.49999999999989
 30
0.0
 11
722.75520499999993
 21
499.19230800000003
 31
0.0
  0
LINE
  5
CCA
  8
WAKU
  6
CONTINUOUS
 10
720.49366699999985
 20
499.19230800000003
 30
0.0
 11
721.77528499999994
 21
496.49999999999989
 31
0.0
  0
LINE
  5
CCB
  8
WAKU
  6
CONTINUOUS
 10
719.51374699999985
 20
496.49999999999989
 30
0.0
 11
720.49366699999985
 21
499.19230800000003
 31
0.0
  0
LINE
  5
CCC
  8
WAKU
  6
CONTINUOUS
 10
718.436824
 20
496.49999999999989
 30
0.0
 11
719.51374699999985
 21
496.49999999999989
 31
0.0
  0
LINE
  5
CCD
  8
WAKU
  6
CONTINUOUS
 10
718.436824
 20
496.49999999999989
 30
0.0
 11
719.39714500000002
 21
499.13846199999989
 31
0.0
  0
LINE
  5
CCE
  8
WAKU
  6
CONTINUOUS
 10
718.09592799999996
 20
501.77692300000001
 30
0.0
 11
720.31131300000004
 21
501.77692300000001
 31
0.0
  0
LINE
  5
CCF
  8
WAKU
  6
CONTINUOUS
 10
718.72307699999999
 20
503.5
 30
0.0
 11
718.09592799999996
 21
501.77692300000001
 31
0.0
  0
LINE
  5
CD0
  8
WAKU
  6
CONTINUOUS
 10
732.78048799999999
 20
499.51538499999998
 30
0.0
 11
733.17245600000001
 21
500.592308
 31
0.0
  0
LINE
  5
CD1
  8
WAKU
  6
CONTINUOUS
 10
731.70356500000003
 20
499.51538499999998
 30
0.0
 11
732.09553300000005
 21
500.592308
 31
0.0
  0
LINE
  5
CD2
  8
WAKU
  6
CONTINUOUS
 10
728.45220800000004
 20
496.49999999999989
 30
0.0
 11
729.23614399999997
 21
498.65384599999999
 31
0.0
  0
LINE
  5
CD3
  8
WAKU
  6
CONTINUOUS
 10
723.85152900000003
 20
498.65384599999999
 30
0.0
 11
729.23614399999997
 21
498.65384599999999
 31
0.0
  0
LINE
  5
CD4
  8
WAKU
  6
CONTINUOUS
 10
723.06759299999999
 20
496.49999999999989
 30
0.0
 11
723.85152900000003
 21
498.65384599999999
 31
0.0
  0
LINE
  5
CD5
  8
WAKU
  6
CONTINUOUS
 10
723.06759299999999
 20
496.49999999999989
 30
0.0
 11
728.45220800000004
 21
496.49999999999989
 31
0.0
  0
LINE
  5
CD6
  8
WAKU
  6
CONTINUOUS
 10
731.17460599999993
 20
498.65384599999999
 30
0.0
 11
735.15922099999989
 21
498.65384599999999
 31
0.0
  0
LINE
  5
CD7
  8
WAKU
  6
CONTINUOUS
 10
731.70356500000003
 20
499.51538499999998
 30
0.0
 11
732.78048799999999
 21
499.51538499999998
 31
0.0
  0
LINE
  5
CD8
  8
WAKU
  6
CONTINUOUS
 10
730.39066999999989
 20
496.49999999999989
 30
0.0
 11
731.17460599999993
 21
498.65384599999999
 31
0.0
  0
LINE
  5
CD9
  8
WAKU
  6
CONTINUOUS
 10
724.98823600000003
 20
501.77692300000001
 30
0.0
 11
730.37285099999997
 21
501.77692300000001
 31
0.0
  0
LINE
  5
CDA
  8
WAKU
  6
CONTINUOUS
 10
725.61538499999995
 20
503.5
 30
0.0
 11
731.0
 21
503.5
 31
0.0
  0
LINE
  5
CDB
  8
WAKU
  6
CONTINUOUS
 10
724.98823600000003
 20
501.77692300000001
 30
0.0
 11
725.61538499999995
 21
503.5
 31
0.0
  0
LINE
  5
CDC
  8
WAKU
  6
CONTINUOUS
 10
724.32307700000001
 20
503.5
 30
0.0
 11
723.69592799999987
 21
501.77692300000001
 31
0.0
  0
LINE
  5
CDD
  8
WAKU
  6
CONTINUOUS
 10
733.15384600000004
 20
503.5
 30
0.0
 11
734.23076900000001
 21
503.5
 31
0.0
  0
LINE
  5
CDE
  8
WAKU
  6
CONTINUOUS
 10
733.76040799999998
 20
502.20769199999989
 30
0.0
 11
734.23076900000001
 21
503.5
 31
0.0
  0
LINE
  5
CDF
  8
WAKU
  6
CONTINUOUS
 10
731.87579200000005
 20
502.20769199999989
 30
0.0
 11
732.68348500000002
 21
502.20769199999989
 31
0.0
  0
LINE
  5
CE0
  8
WAKU
  6
CONTINUOUS
 10
731.28783999999996
 20
500.592308
 30
0.0
 11
732.09553300000005
 21
500.592308
 31
0.0
  0
LINE
  5
CE1
  8
WAKU
  6
CONTINUOUS
 10
731.28783999999996
 20
500.592308
 30
0.0
 11
731.87579200000005
 21
502.20769199999989
 31
0.0
  0
LINE
  5
CE2
  8
WAKU
  6
CONTINUOUS
 10
732.68348500000002
 20
502.20769199999989
 30
0.0
 11
733.15384600000004
 21
503.5
 31
0.0
  0
LINE
  5
CE3
  8
WAKU
  6
CONTINUOUS
 10
730.37285099999997
 20
501.77692300000001
 30
0.0
 11
731.0
 21
503.5
 31
0.0
  0
LINE
  5
CE4
  8
WAKU
  6
CONTINUOUS
 10
745.75305500000002
 20
501.13076899999999
 30
0.0
 11
748.98382400000003
 21
501.13076899999999
 31
0.0
  0
LINE
  5
CE5
  8
WAKU
  6
CONTINUOUS
 10
745.28269399999999
 20
499.83846199999999
 30
0.0
 11
748.513463
 21
499.83846199999999
 31
0.0
  0
LINE
  5
CE6
  8
WAKU
  6
CONTINUOUS
 10
749.45220800000004
 20
496.49999999999989
 30
0.0
 11
744.06759299999999
 21
496.49999999999989
 31
0.0
  0
LINE
  5
CE7
  8
WAKU
  6
CONTINUOUS
 10
744.85152900000003
 20
498.65384599999999
 30
0.0
 11
749.159221
 21
498.65384599999999
 31
0.0
  0
LINE
  5
CE8
  8
WAKU
  6
CONTINUOUS
 10
745.98823600000003
 20
501.77692300000001
 30
0.0
 11
749.21900499999992
 21
501.77692300000001
 31
0.0
  0
LINE
  5
CE9
  8
WAKU
  6
CONTINUOUS
 10
746.61538499999995
 20
503.5
 30
0.0
 11
749.84615399999996
 21
503.5
 31
0.0
  0
LINE
  5
CEA
  8
WAKU
  6
CONTINUOUS
 10
738.78195800000003
 20
499.73076900000001
 30
0.0
 11
739.56589399999996
 21
501.884615
 31
0.0
  0
LINE
  5
CEB
  8
WAKU
  6
CONTINUOUS
 10
740.18195800000001
 20
499.73076900000001
 30
0.0
 11
740.96589400000005
 21
501.884615
 31
0.0
  0
LINE
  5
CEC
  8
WAKU
  6
CONTINUOUS
 10
739.85888099999988
 20
499.73076900000001
 30
0.0
 11
740.64281700000004
 21
501.884615
 31
0.0
  0
LINE
  5
CED
  8
WAKU
  6
CONTINUOUS
 10
741.25888099999986
 20
499.73076900000001
 30
0.0
 11
742.04281700000001
 21
501.884615
 31
0.0
  0
LINE
  5
CEE
  8
WAKU
  6
CONTINUOUS
 10
741.91374699999994
 20
496.49999999999989
 30
0.0
 11
743.87358700000004
 21
501.884615
 31
0.0
  0
LINE
  5
CEF
  8
WAKU
  6
CONTINUOUS
 10
741.42477599999995
 20
498.11538499999989
 30
0.0
 11
742.79666299999997
 21
501.884615
 31
0.0
  0
LINE
  5
CF0
  8
WAKU
  6
CONTINUOUS
 10
735.45220800000004
 20
496.49999999999989
 30
0.0
 11
736.941687
 21
500.592308
 31
0.0
  0
LINE
  5
CF1
  8
WAKU
  6
CONTINUOUS
 10
737.60605499999997
 20
496.49999999999989
 30
0.0
 11
741.91374699999994
 21
496.49999999999989
 31
0.0
  0
LINE
  5
CF2
  8
WAKU
  6
CONTINUOUS
 10
738.78195800000003
 20
499.73076900000001
 30
0.0
 11
739.85888099999988
 21
499.73076900000001
 31
0.0
  0
LINE
  5
CF3
  8
WAKU
  6
CONTINUOUS
 10
738.19400599999994
 20
498.11538499999989
 30
0.0
 11
741.42477599999995
 21
498.11538499999989
 31
0.0
  0
LINE
  5
CF4
  8
WAKU
  6
CONTINUOUS
 10
737.60605499999997
 20
496.49999999999989
 30
0.0
 11
738.19400599999994
 21
498.11538499999989
 31
0.0
  0
LINE
  5
CF5
  8
WAKU
  6
CONTINUOUS
 10
740.18195800000001
 20
499.73076900000001
 30
0.0
 11
741.25888099999986
 21
499.73076900000001
 31
0.0
  0
LINE
  5
CF6
  8
WAKU
  6
CONTINUOUS
 10
744.06759299999999
 20
496.49999999999989
 30
0.0
 11
744.85152900000003
 21
498.65384599999999
 31
0.0
  0
LINE
  5
CF7
  8
WAKU
  6
CONTINUOUS
 10
740.96589400000005
 20
501.884615
 30
0.0
 11
742.04281700000001
 21
501.884615
 31
0.0
  0
LINE
  5
CF8
  8
WAKU
  6
CONTINUOUS
 10
736.92307699999992
 20
503.5
 30
0.0
 11
738.0
 21
503.5
 31
0.0
  0
LINE
  5
CF9
  8
WAKU
  6
CONTINUOUS
 10
737.52963799999986
 20
502.20769199999989
 30
0.0
 11
738.0
 21
503.5
 31
0.0
  0
LINE
  5
CFA
  8
WAKU
  6
CONTINUOUS
 10
737.52963799999986
 20
502.20769199999989
 30
0.0
 11
738.33733099999995
 21
502.20769199999989
 31
0.0
  0
LINE
  5
CFB
  8
WAKU
  6
CONTINUOUS
 10
736.941687
 20
500.592308
 30
0.0
 11
737.74937899999986
 21
500.592308
 31
0.0
  0
LINE
  5
CFC
  8
WAKU
  6
CONTINUOUS
 10
737.74937899999986
 20
500.592308
 30
0.0
 11
738.33733099999995
 21
502.20769199999989
 31
0.0
  0
LINE
  5
CFD
  8
WAKU
  6
CONTINUOUS
 10
739.56589399999996
 20
501.884615
 30
0.0
 11
740.64281700000004
 21
501.884615
 31
0.0
  0
LINE
  5
CFE
  8
WAKU
  6
CONTINUOUS
 10
736.45271500000001
 20
502.20769199999989
 30
0.0
 11
736.92307699999992
 21
503.5
 31
0.0
  0
LINE
  5
CFF
  8
WAKU
  6
CONTINUOUS
 10
746.61538499999995
 20
503.5
 30
0.0
 11
745.98823600000003
 21
501.77692300000001
 31
0.0
  0
LINE
  5
D00
  8
WAKU
  6
CONTINUOUS
 10
745.75305500000002
 20
501.13076899999999
 30
0.0
 11
745.28269399999999
 21
499.83846199999999
 31
0.0
  0
LINE
  5
D01
  8
WAKU
  6
CONTINUOUS
 10
742.79666299999997
 20
501.884615
 30
0.0
 11
743.87358700000004
 21
501.884615
 31
0.0
  0
LINE
  5
D02
  8
WAKU
  6
CONTINUOUS
 10
749.159221
 20
498.65384599999999
 30
0.0
 11
750.92307699999992
 21
503.5
 31
0.0
  0
LINE
  5
D03
  8
WAKU
  6
CONTINUOUS
 10
749.45220800000004
 20
496.49999999999989
 30
0.0
 11
752.0
 21
503.5
 31
0.0
  0
LINE
  5
D04
  8
WAKU
  6
CONTINUOUS
 10
749.21900499999992
 20
501.77692300000001
 30
0.0
 11
749.84615399999996
 21
503.5
 31
0.0
  0
LINE
  5
D05
  8
WAKU
  6
CONTINUOUS
 10
750.92307699999992
 20
503.5
 30
0.0
 11
752.0
 21
503.5
 31
0.0
  0
LINE
  5
D06
  8
WAKU
  6
CONTINUOUS
 10
748.513463
 20
499.83846199999999
 30
0.0
 11
748.98382400000003
 21
501.13076899999999
 31
0.0
  0
LINE
  5
D07
  8
WAKU
  6
CONTINUOUS
 10
709.82864600000005
 20
497.10779099999991
 30
0.0
 11
709.96682399999986
 21
496.82952599999987
 31
0.0
  0
LINE
  5
D08
  8
WAKU
  6
CONTINUOUS
 10
709.96682399999986
 20
496.82952599999987
 30
0.0
 11
710.193309
 21
496.63466399999999
 31
0.0
  0
LINE
  5
D09
  8
WAKU
  6
CONTINUOUS
 10
710.193309
 20
496.63466399999999
 30
0.0
 11
710.49978199999998
 21
496.53036100000003
 31
0.0
  0
LINE
  5
D0A
  8
WAKU
  6
CONTINUOUS
 10
710.49978199999998
 20
496.53036100000003
 30
0.0
 11
710.87498700000003
 21
496.52044899999999
 31
0.0
  0
LINE
  5
D0B
  8
WAKU
  6
CONTINUOUS
 10
710.87498700000003
 20
496.52044899999999
 30
0.0
 11
711.30514200000005
 21
496.60529100000002
 31
0.0
  0
LINE
  5
D0C
  8
WAKU
  6
CONTINUOUS
 10
711.30514200000005
 20
496.60529100000002
 30
0.0
 11
711.77444799999989
 21
496.78177299999999
 31
0.0
  0
LINE
  5
D0D
  8
WAKU
  6
CONTINUOUS
 10
711.77444799999989
 20
496.78177299999999
 30
0.0
 11
712.26566600000001
 21
497.04341099999999
 31
0.0
  0
LINE
  5
D0E
  8
WAKU
  6
CONTINUOUS
 10
712.26566600000001
 20
497.04341099999999
 30
0.0
 11
712.76075600000001
 21
497.38059500000003
 31
0.0
  0
LINE
  5
D0F
  8
WAKU
  6
CONTINUOUS
 10
712.76075600000001
 20
497.38059500000003
 30
0.0
 11
713.24153199999989
 21
497.78094099999998
 31
0.0
  0
LINE
  5
D10
  8
WAKU
  6
CONTINUOUS
 10
713.24153199999989
 20
497.78094099999998
 30
0.0
 11
713.69033499999989
 21
498.22974399999998
 31
0.0
  0
LINE
  5
D11
  8
WAKU
  6
CONTINUOUS
 10
713.69033499999989
 20
498.22974399999998
 30
0.0
 11
714.09068099999979
 21
498.71051999999997
 31
0.0
  0
LINE
  5
D12
  8
WAKU
  6
CONTINUOUS
 10
714.09068099999979
 20
498.71051999999997
 30
0.0
 11
714.427865
 21
499.20560899999998
 31
0.0
  0
LINE
  5
D13
  8
WAKU
  6
CONTINUOUS
 10
714.427865
 20
499.20560899999998
 30
0.0
 11
714.68950299999995
 21
499.69682799999998
 31
0.0
  0
LINE
  5
D14
  8
WAKU
  6
CONTINUOUS
 10
714.68950299999995
 20
499.69682799999998
 30
0.0
 11
714.86598400000003
 21
500.166134
 31
0.0
  0
LINE
  5
D15
  8
WAKU
  6
CONTINUOUS
 10
714.86598400000003
 20
500.166134
 30
0.0
 11
714.950827
 21
500.5962889999999
 31
0.0
  0
LINE
  5
D16
  8
WAKU
  6
CONTINUOUS
 10
714.950827
 20
500.5962889999999
 30
0.0
 11
714.94091500000002
 21
500.9714929999999
 31
0.0
  0
LINE
  5
D17
  8
WAKU
  6
CONTINUOUS
 10
714.94091500000002
 20
500.9714929999999
 30
0.0
 11
714.83661199999995
 21
501.27796699999988
 31
0.0
  0
LINE
  5
D18
  8
WAKU
  6
CONTINUOUS
 10
714.83661199999995
 20
501.27796699999988
 30
0.0
 11
714.641749
 21
501.50445200000001
 31
0.0
  0
LINE
  5
D19
  8
WAKU
  6
CONTINUOUS
 10
714.641749
 20
501.50445200000001
 30
0.0
 11
714.36348399999986
 21
501.64263
 31
0.0
  0
LINE
  5
D1A
  8
WAKU
  6
CONTINUOUS
 10
713.91694099999995
 20
501.683944
 30
0.0
 11
713.48263599999996
 21
501.60801399999991
 31
0.0
  0
LINE
  5
D1B
  8
WAKU
  6
CONTINUOUS
 10
713.48263599999996
 20
501.60801399999991
 30
0.0
 11
713.00563899999997
 21
501.43576799999988
 31
0.0
  0
LINE
  5
D1C
  8
WAKU
  6
CONTINUOUS
 10
713.00563899999997
 20
501.43576799999988
 30
0.0
 11
712.50426900000002
 21
501.17382099999992
 31
0.0
  0
LINE
  5
D1D
  8
WAKU
  6
CONTINUOUS
 10
712.50426900000002
 20
501.17382099999992
 30
0.0
 11
711.99778300000003
 21
500.83223499999991
 31
0.0
  0
LINE
  5
D1E
  8
WAKU
  6
CONTINUOUS
 10
711.99778300000003
 20
500.83223499999991
 30
0.0
 11
711.50563199999988
 21
500.424128
 31
0.0
  0
LINE
  5
D1F
  8
WAKU
  6
CONTINUOUS
 10
711.50563199999988
 20
500.424128
 30
0.0
 11
711.04672000000005
 21
499.96517399999999
 31
0.0
  0
LINE
  5
D20
  8
WAKU
  6
CONTINUOUS
 10
711.04672000000005
 20
499.96517399999999
 30
0.0
 11
710.63867100000004
 21
499.47300000000001
 31
0.0
  0
LINE
  5
D21
  8
WAKU
  6
CONTINUOUS
 10
710.63867100000004
 20
499.47300000000001
 30
0.0
 11
710.29715599999997
 21
498.96650899999992
 31
0.0
  0
LINE
  5
D22
  8
WAKU
  6
CONTINUOUS
 10
710.29715599999997
 20
498.96650899999992
 30
0.0
 11
710.03529300000002
 21
498.46515399999993
 31
0.0
  0
LINE
  5
D23
  8
WAKU
  6
CONTINUOUS
 10
710.03529300000002
 20
498.46515399999993
 30
0.0
 11
709.86313899999993
 21
497.98818899999992
 31
0.0
  0
LINE
  5
D24
  8
WAKU
  6
CONTINUOUS
 10
709.86313899999993
 20
497.98818899999992
 30
0.0
 11
709.78730499999995
 21
497.55393500000002
 31
0.0
  0
LINE
  5
D25
  8
WAKU
  6
CONTINUOUS
 10
710.17291099999989
 20
497.45185599999991
 30
0.0
 11
710.68139500000007
 21
497.53919500000001
 31
0.0
  0
LINE
  5
D26
  8
WAKU
  6
CONTINUOUS
 10
710.68139500000007
 20
497.53919500000001
 30
0.0
 11
711.31226300000003
 21
497.81033200000002
 31
0.0
  0
LINE
  5
D27
  8
WAKU
  6
CONTINUOUS
 10
711.31226300000003
 20
497.81033200000002
 30
0.0
 11
711.98994000000005
 21
498.25143100000003
 31
0.0
  0
LINE
  5
D28
  8
WAKU
  6
CONTINUOUS
 10
711.98994000000005
 20
498.25143100000003
 30
0.0
 11
712.64629600000001
 21
498.8255059999999
 31
0.0
  0
LINE
  5
D29
  8
WAKU
  6
CONTINUOUS
 10
712.64629600000001
 20
498.8255059999999
 30
0.0
 11
713.22023799999988
 21
499.48192
 31
0.0
  0
LINE
  5
D2A
  8
WAKU
  6
CONTINUOUS
 10
713.22023799999988
 20
499.48192
 30
0.0
 11
713.66135299999996
 21
500.15953400000001
 31
0.0
  0
LINE
  5
D2B
  8
WAKU
  6
CONTINUOUS
 10
713.66135299999996
 20
500.15953400000001
 30
0.0
 11
713.93207099999995
 21
500.79040199999992
 31
0.0
  0
LINE
  5
D2C
  8
WAKU
  6
CONTINUOUS
 10
713.93207099999995
 20
500.79040199999992
 30
0.0
 11
714.01922899999988
 21
501.29856899999999
 31
0.0
  0
LINE
  5
D2D
  8
WAKU
  6
CONTINUOUS
 10
713.91694099999995
 20
501.683944
 30
0.0
 11
713.79914800000006
 21
501.78192899999999
 31
0.0
  0
LINE
  5
D2E
  8
WAKU
  6
CONTINUOUS
 10
713.79914800000006
 20
501.78192899999999
 30
0.0
 11
713.59799599999997
 21
501.84090199999991
 31
0.0
  0
LINE
  5
D2F
  8
WAKU
  6
CONTINUOUS
 10
713.59799599999997
 20
501.84090199999991
 30
0.0
 11
713.29085699999996
 21
501.83558099999988
 31
0.0
  0
LINE
  5
D30
  8
WAKU
  6
CONTINUOUS
 10
713.29085699999996
 20
501.83558099999988
 30
0.0
 11
712.89513999999997
 21
501.7400649999999
 31
0.0
  0
LINE
  5
D31
  8
WAKU
  6
CONTINUOUS
 10
712.89513999999997
 20
501.7400649999999
 30
0.0
 11
712.44023499999992
 21
501.54758499999991
 31
0.0
  0
LINE
  5
D32
  8
WAKU
  6
CONTINUOUS
 10
712.44023499999992
 20
501.54758499999991
 30
0.0
 11
711.95458699999995
 21
501.26428399999992
 31
0.0
  0
LINE
  5
D33
  8
WAKU
  6
CONTINUOUS
 10
711.95458699999995
 20
501.26428399999992
 30
0.0
 11
710.99609800000007
 21
500.47510799999998
 31
0.0
  0
LINE
  5
D34
  8
WAKU
  6
CONTINUOUS
 10
710.99609800000007
 20
500.47510799999998
 30
0.0
 11
710.20703499999991
 21
499.51657
 31
0.0
  0
LINE
  5
D35
  8
WAKU
  6
CONTINUOUS
 10
710.20703499999991
 20
499.51657
 30
0.0
 11
709.92351900000006
 21
499.03102799999999
 31
0.0
  0
LINE
  5
D36
  8
WAKU
  6
CONTINUOUS
 10
709.92351900000006
 20
499.03102799999999
 30
0.0
 11
709.73149000000001
 21
498.57602099999991
 31
0.0
  0
LINE
  5
D37
  8
WAKU
  6
CONTINUOUS
 10
709.73149000000001
 20
498.57602099999991
 30
0.0
 11
709.63569600000005
 21
498.18040400000001
 31
0.0
  0
LINE
  5
D38
  8
WAKU
  6
CONTINUOUS
 10
709.63569600000005
 20
498.18040400000001
 30
0.0
 11
709.63035799999989
 21
497.87308699999988
 31
0.0
  0
LINE
  5
D39
  8
WAKU
  6
CONTINUOUS
 10
709.63035799999989
 20
497.87308699999988
 30
0.0
 11
709.68915500000003
 21
497.67243499999989
 31
0.0
  0
LINE
  5
D3A
  8
WAKU
  6
CONTINUOUS
 10
709.68915500000003
 20
497.67243499999989
 30
0.0
 11
709.78730499999995
 21
497.55393500000002
 31
0.0
  0
LINE
  5
D3B
  8
WAKU
  6
CONTINUOUS
 10
710.27517699999999
 20
497.06647600000002
 30
0.0
 11
710.39292699999999
 21
496.96856799999989
 31
0.0
  0
LINE
  5
D3C
  8
WAKU
  6
CONTINUOUS
 10
710.39292699999999
 20
496.96856799999989
 30
0.0
 11
710.59417699999995
 21
496.90949799999999
 31
0.0
  0
LINE
  5
D3D
  8
WAKU
  6
CONTINUOUS
 10
710.59417699999995
 20
496.90949799999999
 30
0.0
 11
710.90129400000001
 21
496.91486299999991
 31
0.0
  0
LINE
  5
D3E
  8
WAKU
  6
CONTINUOUS
 10
710.90129400000001
 20
496.91486299999991
 30
0.0
 11
711.29698399999995
 21
497.01036800000003
 31
0.0
  0
LINE
  5
D3F
  8
WAKU
  6
CONTINUOUS
 10
711.29698399999995
 20
497.01036800000003
 30
0.0
 11
711.75188200000002
 21
497.20279799999997
 31
0.0
  0
LINE
  5
D40
  8
WAKU
  6
CONTINUOUS
 10
711.75188200000002
 20
497.20279799999997
 30
0.0
 11
712.23749699999996
 21
497.48611699999992
 31
0.0
  0
LINE
  5
D41
  8
WAKU
  6
CONTINUOUS
 10
712.23749699999996
 20
497.48611699999992
 30
0.0
 11
713.19596499999989
 21
498.27523200000002
 31
0.0
  0
LINE
  5
D42
  8
WAKU
  6
CONTINUOUS
 10
713.19596499999989
 20
498.27523200000002
 30
0.0
 11
713.98505
 21
499.2337179999999
 31
0.0
  0
LINE
  5
D43
  8
WAKU
  6
CONTINUOUS
 10
713.98505
 20
499.2337179999999
 30
0.0
 11
714.26850699999989
 21
499.71927799999997
 31
0.0
  0
LINE
  5
D44
  8
WAKU
  6
CONTINUOUS
 10
714.26850699999989
 20
499.71927799999997
 30
0.0
 11
714.46070999999995
 21
500.17424799999998
 31
0.0
  0
LINE
  5
D45
  8
WAKU
  6
CONTINUOUS
 10
714.46070999999995
 20
500.17424799999998
 30
0.0
 11
714.55636100000004
 21
500.56986399999988
 31
0.0
  0
LINE
  5
D46
  8
WAKU
  6
CONTINUOUS
 10
714.55636100000004
 20
500.56986399999988
 30
0.0
 11
714.56180199999994
 21
500.877253
 31
0.0
  0
LINE
  5
D47
  8
WAKU
  6
CONTINUOUS
 10
714.56180199999994
 20
500.877253
 30
0.0
 11
714.50295099999994
 21
501.0779179999999
 31
0.0
  0
LINE
  5
D48
  8
WAKU
  6
CONTINUOUS
 10
714.50295099999994
 20
501.0779179999999
 30
0.0
 11
714.40481
 21
501.19624900000002
 31
0.0
  0
LINE
  5
D49
  8
WAKU
  6
CONTINUOUS
 10
714.01922899999988
 20
501.29856899999999
 30
0.0
 11
713.51073799999995
 21
501.21123999999998
 31
0.0
  0
LINE
  5
D4A
  8
WAKU
  6
CONTINUOUS
 10
713.51073799999995
 20
501.21123999999998
 30
0.0
 11
712.87987800000008
 21
500.94005700000002
 31
0.0
  0
LINE
  5
D4B
  8
WAKU
  6
CONTINUOUS
 10
712.87987800000008
 20
500.94005700000002
 30
0.0
 11
712.20218099999988
 21
500.49899099999988
 31
0.0
  0
LINE
  5
D4C
  8
WAKU
  6
CONTINUOUS
 10
712.20218099999988
 20
500.49899099999988
 30
0.0
 11
711.54582699999992
 21
499.924893
 31
0.0
  0
LINE
  5
D4D
  8
WAKU
  6
CONTINUOUS
 10
711.54582699999992
 20
499.924893
 30
0.0
 11
710.97189600000002
 21
499.26847099999992
 31
0.0
  0
LINE
  5
D4E
  8
WAKU
  6
CONTINUOUS
 10
710.97189600000002
 20
499.26847099999992
 30
0.0
 11
710.53071199999988
 21
498.59087499999998
 31
0.0
  0
LINE
  5
D4F
  8
WAKU
  6
CONTINUOUS
 10
710.53071199999988
 20
498.59087499999998
 30
0.0
 11
710.26016800000002
 21
497.959969
 31
0.0
  0
LINE
  5
D50
  8
WAKU
  6
CONTINUOUS
 10
710.26016800000002
 20
497.959969
 30
0.0
 11
710.17291099999989
 21
497.45185599999991
 31
0.0
  0
LINE
  5
D51
  8
WAKU
  6
CONTINUOUS
 10
710.27517699999999
 20
497.06647600000002
 30
0.0
 11
710.70945800000004
 21
497.14239700000002
 31
0.0
  0
LINE
  5
D52
  8
WAKU
  6
CONTINUOUS
 10
710.70945800000004
 20
497.14239700000002
 30
0.0
 11
711.18642799999986
 21
497.31462499999998
 31
0.0
  0
LINE
  5
D53
  8
WAKU
  6
CONTINUOUS
 10
711.18642799999986
 20
497.31462499999998
 30
0.0
 11
711.68776999999989
 21
497.5765449999999
 31
0.0
  0
LINE
  5
D54
  8
WAKU
  6
CONTINUOUS
 10
711.68776999999989
 20
497.5765449999999
 30
0.0
 11
712.19423200000006
 21
497.91809899999998
 31
0.0
  0
LINE
  5
D55
  8
WAKU
  6
CONTINUOUS
 10
712.19423200000006
 20
497.91809899999998
 30
0.0
 11
712.68636300000003
 21
498.32617099999987
 31
0.0
  0
LINE
  5
D56
  8
WAKU
  6
CONTINUOUS
 10
712.68636300000003
 20
498.32617099999987
 30
0.0
 11
713.14526599999988
 21
498.78508899999991
 31
0.0
  0
LINE
  5
D57
  8
WAKU
  6
CONTINUOUS
 10
713.14526599999988
 20
498.78508899999991
 30
0.0
 11
713.553316
 21
499.27722899999992
 31
0.0
  0
LINE
  5
D58
  8
WAKU
  6
CONTINUOUS
 10
713.553316
 20
499.27722899999992
 30
0.0
 11
713.89484299999992
 21
499.78369300000003
 31
0.0
  0
LINE
  5
D59
  8
WAKU
  6
CONTINUOUS
 10
713.89484299999992
 20
499.78369300000003
 30
0.0
 11
714.15673200000003
 21
500.28503000000001
 31
0.0
  0
LINE
  5
D5A
  8
WAKU
  6
CONTINUOUS
 10
714.15673200000003
 20
500.28503000000001
 30
0.0
 11
714.32892500000003
 21
500.76198699999998
 31
0.0
  0
LINE
  5
D5B
  8
WAKU
  6
CONTINUOUS
 10
714.32892500000003
 20
500.76198699999998
 30
0.0
 11
714.40481
 21
501.19624900000002
 31
0.0
  0
LINE
  5
D5C
  8
WAKU
  6
CONTINUOUS
 10
714.36348399999986
 20
501.64263
 30
0.0
 11
714.22530599999993
 21
501.92089499999997
 31
0.0
  0
LINE
  5
D5D
  8
WAKU
  6
CONTINUOUS
 10
714.22530599999993
 20
501.92089499999997
 30
0.0
 11
713.99882100000002
 21
502.11575699999997
 31
0.0
  0
LINE
  5
D5E
  8
WAKU
  6
CONTINUOUS
 10
713.99882100000002
 20
502.11575699999997
 30
0.0
 11
713.69234800000004
 21
502.22005999999988
 31
0.0
  0
LINE
  5
D5F
  8
WAKU
  6
CONTINUOUS
 10
713.69234800000004
 20
502.22005999999988
 30
0.0
 11
713.31714299999987
 21
502.22997199999992
 31
0.0
  0
LINE
  5
D60
  8
WAKU
  6
CONTINUOUS
 10
713.31714299999987
 20
502.22997199999992
 30
0.0
 11
712.88698799999986
 21
502.14512899999988
 31
0.0
  0
LINE
  5
D61
  8
WAKU
  6
CONTINUOUS
 10
712.88698799999986
 20
502.14512899999988
 30
0.0
 11
712.41768300000001
 21
501.96864799999997
 31
0.0
  0
LINE
  5
D62
  8
WAKU
  6
CONTINUOUS
 10
712.41768300000001
 20
501.96864799999997
 30
0.0
 11
711.9264639999999
 21
501.70700999999991
 31
0.0
  0
LINE
  5
D63
  8
WAKU
  6
CONTINUOUS
 10
711.9264639999999
 20
501.70700999999991
 30
0.0
 11
711.43137400000001
 21
501.36982599999988
 31
0.0
  0
LINE
  5
D64
  8
WAKU
  6
CONTINUOUS
 10
711.43137400000001
 20
501.36982599999988
 30
0.0
 11
710.95059900000001
 21
500.96947999999998
 31
0.0
  0
LINE
  5
D65
  8
WAKU
  6
CONTINUOUS
 10
710.95059900000001
 20
500.96947999999998
 30
0.0
 11
710.50179500000002
 21
500.52067699999998
 31
0.0
  0
LINE
  5
D66
  8
WAKU
  6
CONTINUOUS
 10
710.50179500000002
 20
500.52067699999998
 30
0.0
 11
710.10144899999989
 21
500.03990099999987
 31
0.0
  0
LINE
  5
D67
  8
WAKU
  6
CONTINUOUS
 10
710.10144899999989
 20
500.03990099999987
 30
0.0
 11
709.76426500000002
 21
499.54481199999998
 31
0.0
  0
LINE
  5
D68
  8
WAKU
  6
CONTINUOUS
 10
709.76426500000002
 20
499.54481199999998
 30
0.0
 11
709.50262699999985
 21
499.05359299999998
 31
0.0
  0
LINE
  5
D69
  8
WAKU
  6
CONTINUOUS
 10
709.50262699999985
 20
499.05359299999998
 30
0.0
 11
709.32614599999988
 21
498.5842869999999
 31
0.0
  0
LINE
  5
D6A
  8
WAKU
  6
CONTINUOUS
 10
709.32614599999988
 20
498.5842869999999
 30
0.0
 11
709.24130300000002
 21
498.15413199999989
 31
0.0
  0
LINE
  5
D6B
  8
WAKU
  6
CONTINUOUS
 10
709.24130300000002
 20
498.15413199999989
 30
0.0
 11
709.251215
 21
497.77892800000001
 31
0.0
  0
LINE
  5
D6C
  8
WAKU
  6
CONTINUOUS
 10
709.251215
 20
497.77892800000001
 30
0.0
 11
709.35551799999996
 21
497.47245400000003
 31
0.0
  0
LINE
  5
D6D
  8
WAKU
  6
CONTINUOUS
 10
709.35551799999996
 20
497.47245400000003
 30
0.0
 11
709.55038100000002
 21
497.245969
 31
0.0
  0
LINE
  5
D6E
  8
WAKU
  6
CONTINUOUS
 10
709.55038100000002
 20
497.245969
 30
0.0
 11
709.82864600000005
 21
497.10779099999991
 31
0.0
  0
INSERT
  5
D6F
  8
WAKU
  6
CONTINUOUS
  2
*U0
 10
340.0
 20
213.0
 30
0.0
1001
ACAD
1002
{
1000
R14_HATCH_DATA
1000
D6F
1011
341.0
1021
0.0
1031
-0.0
1021
213.0
1031
0.0
1011
340.0
1021
0.0
1031
-0.0
1021
214.0
1031
0.0
1011
340.0
1021
0.0
1031
-0.0
1021
213.0
1031
1.0
1040
0.0
1010
0.0
1020
0.0
1030
1.0
1000
SOLID
1070
     1
1070
     1
1071
       15
1071
        7
1070
     0
1070
     1
1071
        3
1040
372.24905299999989
1040
290.5
1040
367.97127599999999
1040
290.5
1040
367.97127599999999
1040
286.22222199999999
1071
        3
1005
CC0
1005
CC2
1005
CC1
1071
        7
1070
     0
1070
     1
1071
       38
1040
373.99882100000002
1040
289.11575699999992
1040
373.69234799999992
1040
289.22005999999988
1040
373.31714299999999
1040
289.22997199999998
1040
372.88698799999992
1040
289.145129
1040
372.41768300000001
1040
288.96864799999992
1040
371.92646400000001
1040
288.70701000000003
1040
371.43137400000001
1040
288.36982599999999
1040
370.95059900000001
1040
287.96947999999992
1040
370.50179500000002
1040
287.52067699999992
1040
370.10144899999989
1040
287.03990099999987
1040
369.76426499999991
1040
286.54481199999998
1040
369.50262700000002
1040
286.05359299999998
1040
369.32614599999988
1040
285.58428700000002
1040
369.2413029999999
1040
285.15413199999989
1040
369.251215
1040
284.77892800000001
1040
369.35551800000002
1040
284.47245400000003
1040
369.55038100000002
1040
284.245969
1040
369.82864599999988
1040
284.10779100000002
1040
369.96682399999997
1040
283.82952599999987
1040
370.193309
1040
283.63466399999999
1040
370.49978199999993
1040
283.53036100000003
1040
370.87498699999998
1040
283.52044899999999
1040
371.30514199999988
1040
283.60529100000002
1040
371.77444800000001
1040
283.78177299999987
1040
372.26566600000001
1040
284.04341099999988
1040
372.76075600000001
1040
284.38059500000003
1040
373.24153200000001
1040
284.78094099999998
1040
373.69033499999989
1040
285.22974399999998
1040
374.09068100000002
1040
285.71051999999997
1040
374.427865
1040
286.20560899999992
1040
374.689503
1040
286.69682799999998
1040
374.86598399999991
1040
287.166134
1040
374.950827
1040
287.59628900000001
1040
374.94091500000002
1040
287.97149300000001
1040
374.836612
1040
288.27796699999999
1040
374.641749
1040
288.50445200000001
1040
374.36348399999991
1040
288.64263
1040
374.22530599999988
1040
288.92089499999997
1071
       38
1005
D5D
1005
D5E
1005
D5F
1005
D60
1005
D61
1005
D62
1005
D63
1005
D64
1005
D65
1005
D66
1005
D67
1005
D68
1005
D69
1005
D6A
1005
D6B
1005
D6C
1005
D6D
1005
D6E
1005
D07
1005
D08
1005
D09
1005
D0A
1005
D0B
1005
D0C
1005
D0D
1005
D0E
1005
D0F
1005
D10
1005
D11
1005
D12
1005
D13
1005
D14
1005
D15
1005
D16
1005
D17
1005
D18
1005
D19
1005
D5C
1071
       22
1070
     0
1070
     1
1071
       25
1040
373.799148
1040
288.78192899999988
1040
373.91694100000001
1040
288.683944
1040
373.48263600000001
1040
288.60801400000003
1040
373.00563899999997
1040
288.43576799999988
1040
372.50426900000002
1040
288.17382099999992
1040
371.99778300000003
1040
287.83223500000003
1040
371.50563199999988
1040
287.424128
1040
371.04671999999999
1040
286.96517399999999
1040
370.63867099999987
1040
286.47300000000001
1040
370.29715599999997
1040
285.96650899999992
1040
370.03529300000002
1040
285.46515399999993
1040
369.86313899999999
1040
284.98818899999998
1040
369.787305
1040
284.55393500000002
1040
369.68915499999991
1040
284.67243500000001
1040
369.63035799999989
1040
284.873087
1040
369.635696
1040
285.18040400000001
1040
369.73149000000001
1040
285.57602099999991
1040
369.923519
1040
286.03102799999988
1040
370.20703500000002
1040
286.51657
1040
370.99609800000002
1040
287.47510799999998
1040
371.954587
1040
288.26428399999992
1040
372.44023499999997
1040
288.54758500000003
1040
372.89513999999991
1040
288.74006500000002
1040
373.2908569999999
1040
288.83558099999988
1040
373.59799600000002
1040
288.84090200000003
1071
       25
1005
D2D
1005
D1A
1005
D1B
1005
D1C
1005
D1D
1005
D1E
1005
D1F
1005
D20
1005
D21
1005
D22
1005
D23
1005
D24
1005
D3A
1005
D39
1005
D38
1005
D37
1005
D36
1005
D35
1005
D34
1005
D33
1005
D32
1005
D31
1005
D30
1005
D2F
1005
D2E
1071
       22
1070
     0
1070
     1
1071
       16
1040
374.01922899999988
1040
288.29856899999987
1040
373.93207100000001
1040
287.79040199999997
1040
373.66135299999991
1040
287.15953400000001
1040
373.22023799999988
1040
286.48191999999989
1040
372.64629600000001
1040
285.82550600000002
1040
371.98993999999999
1040
285.25143100000003
1040
371.31226299999992
1040
284.8103319999999
1040
370.68139500000001
1040
284.53919500000001
1040
370.172911
1040
284.45185600000002
1040
370.26016800000002
1040
284.959969
1040
370.53071199999999
1040
285.59087499999993
1040
370.97189600000002
1040
286.26847099999992
1040
371.54582699999992
1040
286.92489299999988
1040
372.202181
1040
287.49899099999999
1040
372.87987799999991
1040
287.94005699999991
1040
373.510738
1040
288.21123999999998
1071
       16
1005
D2C
1005
D2B
1005
D2A
1005
D29
1005
D28
1005
D27
1005
D26
1005
D25
1005
D50
1005
D4F
1005
D4E
1005
D4D
1005
D4C
1005
D4B
1005
D4A
1005
D49
1071
       22
1070
     0
1070
     1
1071
       25
1040
374.40481
1040
288.19624900000002
1040
374.502951
1040
288.07791800000001
1040
374.561802
1040
287.87725299999988
1040
374.55636099999998
1040
287.56986399999988
1040
374.46071000000001
1040
287.17424799999992
1040
374.268507
1040
286.71927799999992
1040
373.98505
1040
286.23371800000001
1040
373.195965
1040
285.2752319999999
1040
372.23749700000002
1040
284.48611699999992
1040
371.75188199999991
1040
284.20279799999992
1040
371.2969839999999
1040
284.01036800000003
1040
370.90129400000001
1040
283.91486300000003
1040
370.59417699999989
1040
283.90949799999999
1040
370.39292699999987
1040
283.968568
1040
370.27517699999993
1040
284.06647599999991
1040
370.70945799999993
1040
284.14239700000002
1040
371.18642799999992
1040
284.31462499999992
1040
371.68776999999989
1040
284.57654500000001
1040
372.194232
1040
284.91809899999998
1040
372.68636299999991
1040
285.32617099999987
1040
373.14526599999988
1040
285.78508900000003
1040
373.553316
1040
286.27722899999992
1040
373.89484299999998
1040
286.78369300000003
1040
374.15673199999992
1040
287.28502999999989
1040
374.32892500000003
1040
287.76198699999998
1071
       25
1005
D48
1005
D47
1005
D46
1005
D45
1005
D44
1005
D43
1005
D42
1005
D41
1005
D40
1005
D3F
1005
D3E
1005
D3D
1005
D3C
1005
D3B
1005
D51
1005
D52
1005
D53
1005
D54
1005
D55
1005
D56
1005
D57
1005
D58
1005
D59
1005
D5A
1005
D5B
1071
        7
1070
     0
1070
     1
1071
       14
1040
378.72307699999988
1040
290.5
1040
378.0959279999999
1040
288.7769229999999
1040
380.31131299999993
1040
288.7769229999999
1040
377.15520499999991
1040
286.19230800000003
1040
376.17528499999997
1040
283.49999999999989
1040
379.39714500000002
1040
286.13846199999989
1040
378.436824
1040
283.49999999999989
1040
379.51374700000002
1040
283.49999999999989
1040
380.49366700000002
1040
286.19230800000003
1040
381.775285
1040
283.49999999999989
1040
382.75520499999988
1040
286.19230800000003
1040
381.5248509999999
1040
288.7769229999999
1040
383.69592799999992
1040
288.7769229999999
1040
384.32307700000001
1040
290.5
1071
       14
1005
CC4
1005
CCF
1005
CCE
1005
CC5
1005
CC7
1005
CC8
1005
CCD
1005
CCC
1005
CCB
1005
CCA
1005
CC9
1005
CC6
1005
CC3
1005
CDC
1071
        7
1070
     0
1070
     1
1071
        4
1040
385.615385
1040
290.5
1040
384.98823599999992
1040
288.7769229999999
1040
390.37285099999991
1040
288.7769229999999
1040
391.0
1040
290.5
1071
        4
1005
CDA
1005
CDB
1005
CD9
1005
CE3
1071
        7
1070
     0
1070
     1
1071
        4
1040
388.45220799999993
1040
283.49999999999989
1040
389.23614399999991
1040
285.65384599999987
1040
383.85152900000003
1040
285.65384599999987
1040
383.06759299999999
1040
283.49999999999989
1071
        4
1005
CD3
1005
CD4
1005
CD5
1005
CD2
1071
        7
1070
     0
1070
     1
1071
       22
1040
395.45220799999993
1040
283.49999999999989
1040
396.941687
1040
287.592308
1040
397.74937899999998
1040
287.592308
1040
398.33733100000001
1040
289.20769200000001
1040
397.52963799999992
1040
289.20769200000001
1040
398.0
1040
290.5
1040
396.92307699999992
1040
290.5
1040
396.45271500000001
1040
289.20769200000001
1040
393.76040799999993
1040
289.20769200000001
1040
394.23076900000001
1040
290.5
1040
393.15384599999999
1040
290.5
1040
392.68348500000002
1040
289.20769200000001
1040
391.87579199999999
1040
289.20769200000001
1040
391.28784000000002
1040
287.592308
1040
392.09553299999988
1040
287.592308
1040
391.70356499999991
1040
286.51538499999998
1040
392.78048799999999
1040
286.51538499999998
1040
393.17245600000001
1040
287.592308
1040
395.86476299999993
1040
287.592308
1040
395.159221
1040
285.65384599999987
1040
391.17460599999998
1040
285.65384599999987
1040
390.39067
1040
283.49999999999989
1071
       22
1005
CFB
1005
CFC
1005
CFA
1005
CF9
1005
CF8
1005
CFE
1005
CBC
1005
CDE
1005
CDD
1005
CE2
1005
CDF
1005
CE1
1005
CE0
1005
CD1
1005
CD7
1005
CD0
1005
CBD
1005
CBF
1005
CD6
1005
CD8
1005
CBE
1005
CF0
1071
        7
1070
     0
1070
     1
1071
        6
1040
398.19400599999989
1040
285.115385
1040
397.60605499999991
1040
283.49999999999989
1040
401.913747
1040
283.49999999999989
1040
403.87358699999999
1040
288.884615
1040
402.79666299999991
1040
288.884615
1040
401.42477599999989
1040
285.115385
1071
        6
1005
D01
1005
CEF
1005
CF3
1005
CF4
1005
CF1
1005
CEE
1071
       23
1070
     0
1070
     1
1071
        4
1040
402.04281700000001
1040
288.884615
1040
400.96589399999988
1040
288.884615
1040
400.18195800000001
1040
286.73076900000001
1040
401.25888099999997
1040
286.73076900000001
1071
        4
1005
CF7
1005
CEB
1005
CF5
1005
CED
1071
       23
1070
     0
1070
     1
1071
        4
1040
400.64281699999992
1040
288.884615
1040
399.56589400000001
1040
288.884615
1040
398.78195799999997
1040
286.73076900000001
1040
399.858881
1040
286.73076900000001
1071
        4
1005
CFD
1005
CEA
1005
CF2
1005
CEC
1071
       23
1070
     0
1070
     1
1071
        4
1040
406.615385
1040
290.5
1040
405.98823599999992
1040
288.7769229999999
1040
409.21900499999998
1040
288.7769229999999
1040
409.84615400000001
1040
290.5
1071
        4
1005
CE9
1005
CFF
1005
CE8
1005
D04
1071
       23
1070
     0
1070
     1
1071
        4
1040
405.75305500000002
1040
288.13076899999987
1040
405.28269399999999
1040
286.83846199999999
1040
408.51346299999989
1040
286.83846199999999
1040
408.98382400000003
1040
288.13076899999987
1071
        4
1005
CE4
1005
D00
1005
CE5
1005
D06
1071
        7
1070
     0
1070
     1
1071
        6
1040
409.45220799999993
1040
283.49999999999989
1040
412.0
1040
290.5
1040
410.92307699999992
1040
290.5
1040
409.15922099999989
1040
285.65384599999987
1040
404.85152900000003
1040
285.65384599999987
1040
404.06759299999999
1040
283.49999999999989
1071
        6
1005
D05
1005
D02
1005
CE7
1005
CF6
1005
CE6
1005
D03
1070
     0
1070
     1
1040
0.054099
1071
       15
1040
371.24837300000002
1040
289.88140899999991
1040
0.0
1040
373.90111799999988
1040
288.90763299999998
1040
0.0
1040
373.90111799999988
1040
288.90763299999998
1040
0.0
1040
373.90111799999988
1040
288.90763299999998
1040
0.0
1040
373.90111799999988
1040
288.90763299999998
1040
0.0
1040
380.34350000000001
1040
289.82731000000001
1040
0.0
1040
388.24759699999998
1040
289.66501399999993
1040
0.0
1040
386.51519200000001
1040
284.14694900000001
1040
0.0
1040
392.57860899999991
1040
284.25514599999991
1040
0.0
1040
400.53684500000003
1040
284.30924499999998
1040
0.0
1040
401.02408299999991
1040
287.55516599999999
1040
0.0
1040
399.72478000000001
1040
287.60926399999988
1040
0.0
1040
407.35818899999998
1040
289.98960599999992
1040
0.0
1040
407.141639
1040
287.50106699999992
1040
0.0
1040
407.19577600000002
1040
284.471541
1040
0.0
1002
}
  0
LINE
  5
74A8
  8
WAKU
 10
5.0
 20
505.0
 30
0.0
 11
755.0
 21
505.0
 31
0.0
  0
LINE
  5
992C
  8
SUNPO
  6
BYBLOCK
 10
368.35694699999999
 20
299.70515199999988
 30
0.0
 11
398.35694699999999
 21
299.70515199999988
 31
0.0
  0
LINE
  5
992D
  8
SUNPO
  6
BYBLOCK
 10
383.35694699999999
 20
172.705152
 30
0.0
 11
368.35694699999999
 21
172.705152
 31
0.0
  0
LINE
  5
992E
  8
SUNPO
  6
BYBLOCK
 10
398.35694699999999
 20
162.705152
 30
0.0
 11
368.35694699999999
 21
162.705152
 31
0.0
  0
LINE
  5
992F
  8
DANMEN
  6
CONTINUOUS
 10
368.85694699999999
 20
189.70515199999991
 30
0.0
 11
397.85694699999999
 21
189.70515199999991
 31
0.0
  0
LINE
  5
9930
  8
DANMEN
  6
CONTINUOUS
 10
368.85694699999999
 20
289.705152
 30
0.0
 11
397.85694699999999
 21
289.705152
 31
0.0
  0
TEXT
  5
9931
  8
SUNPO
  6
CONTINUOUS
 10
381.48194699999999
 20
163.205152
 30
0.0
 40
2.5
  1
30
  7
MX_NOTE_STANDARD
  0
TEXT
  5
9932
  8
SUNPO
  6
CONTINUOUS
 10
381.48194699999999
 20
300.205152
 30
0.0
 40
2.5
  1
30
  7
MX_NOTE_STANDARD
  0
LINE
  5
9933
  8
DANMEN
  6
CONTINUOUS
 10
216.4380459999999
 20
274.93984799999993
 30
0.0
 11
216.4380459999999
 21
164.43984800000001
 31
0.0
  0
LINE
  5
9934
  8
DANMEN
  6
CONTINUOUS
 10
214.78805199999999
 20
274.93984799999993
 30
0.0
 11
214.78805199999999
 21
165.96968799999999
 31
0.0
  0
LINE
  5
9935
  8
DANMEN
  6
CONTINUOUS
 10
381.70694700000001
 20
288.05515200000002
 30
0.0
 11
381.70694700000001
 21
191.355152
 31
0.0
  0
LINE
  5
9936
  8
DANMEN
  6
CONTINUOUS
 10
309.57894099999999
 20
244.43984699999999
 30
0.0
 11
317.93805600000002
 21
249.52800400000001
 31
0.0
  0
LINE
  5
9937
  8
DANMEN
  6
CONTINUOUS
 10
310.28805299999999
 20
242.93984499999999
 30
0.0
 11
321.54802699999999
 21
249.7937419999999
 31
0.0
  0
LINE
  5
9938
  8
DANMEN
  6
CONTINUOUS
 10
269.78803499999998
 20
269.93984399999988
 30
0.0
 11
269.78803499999998
 21
246.93984399999991
 31
0.0
  0
ARC
  5
9939
  8
DANMEN
  6
CONTINUOUS
 10
273.08803399999999
 20
247.23984400000001
 30
0.0
 40
1.0
 50
0.0
 51
90.0
  0
ARC
  5
993A
  8
DANMEN
  6
CONTINUOUS
 10
272.23803399999991
 20
248.73984400000001
 30
0.0
 40
0.5
 50
180.0
 51
270.0
  0
LINE
  5
993B
  8
DANMEN
  6
CONTINUOUS
 10
321.78805299999988
 20
248.43984699999999
 30
0.0
 11
312.28805299999988
 21
242.93984699999999
 31
0.0
  0
LINE
  5
993C
  8
DANMEN
  6
CONTINUOUS
 10
311.78805299999988
 20
242.93984699999999
 30
0.0
 11
311.78805299999988
 21
252.9398459999999
 31
0.0
  0
ARC
  5
993D
  8
DANMEN
  6
CONTINUOUS
 10
322.78805299999999
 20
250.43984699999999
 30
0.0
 40
2.0
 50
270.0
 51
0.0
  0
LINE
  5
993E
  8
DANMEN
  6
CONTINUOUS
 10
228.28805199999991
 20
162.43984800000001
 30
0.0
 11
314.78805199999999
 21
162.43984800000001
 31
0.0
  0
LINE
  5
993F
  8
DANMEN
  6
CONTINUOUS
 10
261.9841679999999
 20
179.7790709999999
 30
0.0
 11
250.28805199999999
 21
177.43984800000001
 31
0.0
  0
LINE
  5
9940
  8
DANMEN
  6
CONTINUOUS
 10
265.20143400000001
 20
178.73984799999999
 30
0.0
 11
250.54853199999999
 21
175.80926700000001
 31
0.0
  0
LINE
  5
9941
  8
DANMEN
  6
CONTINUOUS
 10
226.78805199999991
 20
162.43984800000001
 30
0.0
 11
226.78805199999991
 21
153.93984800000001
 31
0.0
  0
LINE
  5
9942
  8
DANMEN
  6
CONTINUOUS
 10
228.28805199999991
 20
163.089842
 30
0.0
 11
228.28805199999991
 21
153.93984800000001
 31
0.0
  0
ARC
  5
9947
  8
DANMEN
  6
CONTINUOUS
 10
227.78805199999999
 20
153.93984800000001
 30
0.0
 40
0.5
 50
270.0
 51
0.0
  0
ARC
  5
9949
  8
DANMEN
  6
CONTINUOUS
 10
227.28805199999999
 20
153.93984800000001
 30
0.0
 40
0.5
 50
180.0
 51
270.0
  0
LINE
  5
994A
  8
DANMEN
  6
CONTINUOUS
 10
227.28805199999999
 20
153.43984800000001
 30
0.0
 11
227.78805199999999
 21
153.43984800000001
 31
0.0
  0
LINE
  5
994B
  8
DANMEN
  6
CONTINUOUS
 10
215.19027299999991
 20
162.43984800000001
 30
0.0
 11
222.28805199999991
 21
162.43984800000001
 31
0.0
  0
LINE
  5
994C
  8
DANMEN
  6
CONTINUOUS
 10
215.88805199999999
 20
164.43984800000001
 30
0.0
 11
221.78805199999999
 21
164.43984800000001
 31
0.0
  0
LINE
  5
994D
  8
DANMEN
  6
CONTINUOUS
 10
215.58805499999991
 20
163.3398479999999
 30
0.0
 11
221.78805199999999
 21
163.3398479999999
 31
0.0
  0
LINE
  5
994E
  8
DANMEN
  6
CONTINUOUS
 10
212.9880519999999
 20
171.83984199999989
 30
0.0
 11
212.9880519999999
 21
166.869685
 31
0.0
  0
LINE
  5
994F
  8
DANMEN
  6
CONTINUOUS
 10
211.78805199999991
 20
171.83984199999989
 30
0.0
 11
211.78805199999991
 21
166.54886799999991
 31
0.0
  0
LINE
  5
9950
  8
DANMEN
  6
CONTINUOUS
 10
212.9880519999999
 20
166.869685
 30
0.0
 11
215.61165899999989
 21
165.55788200000001
 31
0.0
  0
LINE
  5
9951
  8
DANMEN
  6
CONTINUOUS
 10
212.06444499999989
 20
166.101651
 30
0.0
 11
214.78805199999999
 21
164.73984799999991
 31
0.0
  0
ARC
  5
9954
  8
DANMEN
  6
CONTINUOUS
 10
212.28805199999991
 20
166.54886499999989
 30
0.0
 40
0.5
 50
180.0
 51
243.43494899999999
  0
ARC
  5
9957
  8
DANMEN
  6
CONTINUOUS
 10
215.38805199999999
 20
165.110668
 30
0.0
 40
0.5
 50
0.0
 51
63.434949000000003
  0
LINE
  5
9958
  8
DANMEN
  6
CONTINUOUS
 10
215.88805199999999
 20
165.110668
 30
0.0
 11
215.88805199999999
 21
164.43984800000001
 31
0.0
  0
ARC
  5
995B
  8
DANMEN
  6
CONTINUOUS
 10
215.188052
 20
162.8398479999999
 30
0.0
 40
0.4
 50
180.0
 51
0.0
  0
LINE
  5
995E
  8
DANMEN
  6
CONTINUOUS
 10
215.588052
 20
163.3398479999999
 30
0.0
 11
215.588052
 21
162.839842
 31
0.0
  0
LINE
  5
995F
  8
DANMEN
  6
CONTINUOUS
 10
214.78805199999999
 20
164.73984799999991
 30
0.0
 11
214.78805199999999
 21
162.839842
 31
0.0
  0
ARC
  5
9960
  8
DANMEN
  6
CONTINUOUS
 10
212.38805199999999
 20
171.8398479999999
 30
0.0
 40
0.6
 50
0.0
 51
180.0
  0
LINE
  5
9963
  8
DANMEN
  6
CONTINUOUS
 10
232.28805199999999
 20
190.73113599999999
 30
0.0
 11
232.28805199999999
 21
177.43984800000001
 31
0.0
  0
LINE
  5
9964
  8
DANMEN
  6
CONTINUOUS
 10
235.28805199999991
 20
190.73113599999999
 30
0.0
 11
235.28805199999991
 21
177.43984800000001
 31
0.0
  0
LINE
  5
9965
  8
DANMEN
  6
CONTINUOUS
 10
234.48805200000001
 20
175.73984799999991
 30
0.0
 11
236.088052
 21
175.73984799999991
 31
0.0
  0
LINE
  5
9966
  8
DANMEN
  6
CONTINUOUS
 10
223.438052
 20
169.78984800000001
 30
0.0
 11
223.438052
 21
164.0898479999999
 31
0.0
  0
LINE
  5
9967
  8
DANMEN
  6
CONTINUOUS
 10
221.78805199999999
 20
170.43984800000001
 30
0.0
 11
221.78805199999999
 21
164.43984800000001
 31
0.0
  0
LINE
  5
9968
  8
DANMEN
  6
CONTINUOUS
 10
223.438052
 20
164.0898479999999
 30
0.0
 11
227.28805199999999
 21
164.0898479999999
 31
0.0
  0
LINE
  5
9969
  8
DANMEN
  6
CONTINUOUS
 10
222.28805199999991
 20
162.43984800000001
 30
0.0
 11
226.78805199999991
 21
162.43984800000001
 31
0.0
  0
ARC
  5
996B
  8
DANMEN
  6
CONTINUOUS
 10
222.28805199999991
 20
162.93984800000001
 30
0.0
 40
0.5
 50
180.0
 51
270.0
  0
LINE
  5
996E
  8
DANMEN
  6
CONTINUOUS
 10
221.78805199999999
 20
163.3398479999999
 30
0.0
 11
221.78805199999999
 21
162.93984800000001
 31
0.0
  0
ARC
  5
9971
  8
DANMEN
  6
CONTINUOUS
 10
227.28805199999999
 20
163.0898479999999
 30
0.0
 40
1.0
 50
0.0
 51
90.0
  0
LINE
  5
9974
  8
DANMEN
  6
CONTINUOUS
 10
222.78805199999991
 20
171.43984800000001
 30
0.0
 11
231.78805199999999
 21
171.43984800000001
 31
0.0
  0
LINE
  5
9975
  8
DANMEN
  6
CONTINUOUS
 10
223.438052
 20
169.78984800000001
 30
0.0
 11
231.938052
 21
169.78984800000001
 31
0.0
  0
ARC
  5
9976
  8
DANMEN
  6
CONTINUOUS
 10
222.78805199999991
 20
170.43984800000001
 30
0.0
 40
1.0
 50
90.0
 51
180.0
  0
ARC
  5
9979
  8
DANMEN
  6
CONTINUOUS
 10
234.48805200000001
 20
173.49378699999991
 30
0.0
 40
1.0
 50
180.0
 51
245.3756819999999
  0
LINE
  5
997A
  8
DANMEN
  6
CONTINUOUS
 10
231.78805199999999
 20
176.93984800000001
 30
0.0
 11
231.78805199999999
 21
171.43984800000001
 31
0.0
  0
ARC
  5
997B
  8
DANMEN
  6
CONTINUOUS
 10
233.88805199999999
 20
172.13984799999989
 30
0.0
 40
0.3
 50
270.0
 51
0.0
  0
LINE
  5
997C
  8
DANMEN
  6
CONTINUOUS
 10
233.43805199999991
 20
171.8398479999999
 30
0.0
 11
233.88805199999999
 21
171.8398479999999
 31
0.0
  0
LINE
  5
997D
  8
DANMEN
  6
CONTINUOUS
 10
234.188052
 20
172.13984799999989
 30
0.0
 11
234.188052
 21
172.402916
 31
0.0
  0
ARC
  5
997E
  8
DANMEN
  6
CONTINUOUS
 10
233.98805200000001
 20
172.402916
 30
0.0
 40
0.2
 50
0.0
 51
65.375681999999983
  0
LINE
  5
9980
  8
DANMEN
  6
CONTINUOUS
 10
233.43805199999991
 20
171.8398479999999
 30
0.0
 11
233.43805199999991
 21
171.28984799999989
 31
0.0
  0
ARC
  5
9982
  8
DANMEN
  6
CONTINUOUS
 10
231.938052
 20
171.28984799999989
 30
0.0
 40
1.5
 50
270.0
 51
0.0
  0
LINE
  5
9985
  8
DANMEN
  6
CONTINUOUS
 10
233.48805200000001
 20
173.49378699999991
 30
0.0
 11
233.48805200000001
 21
174.73984799999999
 31
0.0
  0
ARC
  5
9986
  8
DANMEN
  6
CONTINUOUS
 10
234.48805200000001
 20
174.73984799999999
 30
0.0
 40
1.0
 50
90.0
 51
180.0
  0
ARC
  5
9987
  8
DANMEN
  6
CONTINUOUS
 10
232.28805199999999
 20
176.93984800000001
 30
0.0
 40
0.5
 50
90.0
 51
180.0
  0
ARC
  5
9989
  8
DANMEN
  6
CONTINUOUS
 10
239.78805199999999
 20
168.43984800000001
 30
0.0
 40
1.5
 50
193.16334399999991
 51
283.163344
  0
LINE
  5
998A
  8
DANMEN
  6
CONTINUOUS
 10
243.05081799999999
 20
167.66244499999999
 30
0.0
 11
240.1296439999999
 21
166.97926100000001
 31
0.0
  0
LINE
  5
998C
  8
DANMEN
  6
CONTINUOUS
 10
239.58805199999989
 20
175.78984800000001
 30
0.0
 11
250.35241500000001
 21
175.78984800000001
 31
0.0
  0
LINE
  5
998D
  8
DANMEN
  6
CONTINUOUS
 10
235.28805199999991
 20
177.43984800000001
 30
0.0
 11
250.28805199999999
 21
177.43984800000001
 31
0.0
  0
ARC
  5
998E
  8
DANMEN
  6
CONTINUOUS
 10
242.78893099999999
 20
168.78222799999989
 30
0.0
 40
0.5
 50
13.163344
 51
103.163344
  0
ARC
  5
998F
  8
DANMEN
  6
CONTINUOUS
 10
236.088052
 20
173.49378699999991
 30
0.0
 40
1.0
 50
294.62431800000002
 51
0.0
  0
LINE
  5
9990
  8
DANMEN
  6
CONTINUOUS
 10
239.89995200000001
 20
168.62006599999989
 30
0.0
 11
238.588052
 21
174.2295179999999
 31
0.0
  0
ARC
  5
9991
  8
DANMEN
  6
CONTINUOUS
 10
236.688052
 20
172.13984799999989
 30
0.0
 40
0.3
 50
180.0
 51
270.0
  0
LINE
  5
9992
  8
DANMEN
  6
CONTINUOUS
 10
236.688052
 20
171.8398479999999
 30
0.0
 11
237.45240699999999
 21
171.8398479999999
 31
0.0
  0
ARC
  5
9993
  8
DANMEN
  6
CONTINUOUS
 10
236.588052
 20
172.402916
 30
0.0
 40
0.2
 50
114.6243179999999
 51
180.0
  0
LINE
  5
9994
  8
DANMEN
  6
CONTINUOUS
 10
236.38805199999999
 20
172.13984799999989
 30
0.0
 11
236.38805199999999
 21
172.402916
 31
0.0
  0
LINE
  5
9995
  8
DANMEN
  6
CONTINUOUS
 10
238.32746499999999
 20
168.09825599999991
 30
0.0
 11
237.45240699999999
 21
171.8398479999999
 31
0.0
  0
LINE
  5
9998
  8
DANMEN
  6
CONTINUOUS
 10
242.67506700000001
 20
169.269091
 30
0.0
 11
239.89995200000001
 21
168.62006599999989
 31
0.0
  0
ARC
  5
9999
  8
DANMEN
  6
CONTINUOUS
 10
239.58805199999989
 20
174.78984800000001
 30
0.0
 40
1.0
 50
90.0
 51
180.0
  0
ARC
  5
999C
  8
DANMEN
  6
CONTINUOUS
 10
236.088052
 20
174.73984799999999
 30
0.0
 40
1.0
 50
0.0
 51
90.0
  0
LINE
  5
999D
  8
DANMEN
  6
CONTINUOUS
 10
237.088052
 20
173.49378699999991
 30
0.0
 11
237.088052
 21
174.73984799999999
 31
0.0
  0
LINE
  5
999E
  8
DANMEN
  6
CONTINUOUS
 10
238.588052
 20
174.2295179999999
 30
0.0
 11
238.588052
 21
174.78984800000001
 31
0.0
  0
LINE
  5
99A1
  8
DANMEN
  6
CONTINUOUS
 10
243.4238169999999
 20
168.263171
 30
0.0
 11
243.27579399999999
 21
168.8960919999999
 31
0.0
  0
ARC
  5
99A2
  8
DANMEN
  6
CONTINUOUS
 10
242.93695399999999
 20
168.14930699999991
 30
0.0
 40
0.5
 50
283.163344
 51
13.163344
  0
ARC
  5
99A6
  8
DANMEN
  6
CONTINUOUS
 10
250.35241500000001
 20
176.78984800000001
 30
0.0
 40
1.0
 50
270.0
 51
281.309932
  0
ARC
  5
99A8
  8
DANMEN
  6
CONTINUOUS
 10
233.78805199999999
 20
188.43984800000001
 30
0.0
 40
3.0
 50
66.421821999999992
 51
113.57817799999999
  0
ARC
  5
99AA
  8
DANMEN
  6
CONTINUOUS
 10
232.78805199999991
 20
190.73113599999999
 30
0.0
 40
0.5
 50
113.57817799999999
 51
180.0
  0
ARC
  5
99AE
  8
DANMEN
  6
CONTINUOUS
 10
234.78805199999991
 20
190.73113599999999
 30
0.0
 40
0.5
 50
0.0
 51
66.421821999999992
  0
LINE
  5
99B0
  8
DANMEN
  6
CONTINUOUS
 10
314.78805199999999
 20
244.387215
 30
0.0
 11
314.78805199999999
 21
162.43984800000001
 31
0.0
  0
ARC
  5
99B1
  8
DANMEN
  6
CONTINUOUS
 10
270.28805199999988
 20
202.139848
 30
0.0
 40
0.5
 50
180.0
 51
270.0
  0
LINE
  5
99B2
  8
DANMEN
  6
CONTINUOUS
 10
266.28805199999988
 20
203.63984799999989
 30
0.0
 11
266.28805199999988
 21
197.93984800000001
 31
0.0
  0
LINE
  5
99B3
  8
DANMEN
  6
CONTINUOUS
 10
314.78805199999999
 20
221.93984800000001
 30
0.0
 11
314.78805199999999
 21
182.93984800000001
 31
0.0
  0
LINE
  5
99B4
  8
DANMEN
  6
CONTINUOUS
 10
265.28805199999999
 20
204.43984800000001
 30
0.0
 11
265.28805199999999
 21
198.43984800000001
 31
0.0
  0
ARC
  5
99B5
  8
DANMEN
  6
CONTINUOUS
 10
300.98805299999992
 20
200.73984799999991
 30
0.0
 40
1.0
 50
90.0
 51
180.0
  0
ARC
  5
99B6
  8
DANMEN
  6
CONTINUOUS
 10
302.588052
 20
200.73984799999991
 30
0.0
 40
1.0
 50
0.0
 51
90.0
  0
ARC
  5
99B7
  8
DANMEN
  6
CONTINUOUS
 10
306.08805199999989
 20
200.78984800000001
 30
0.0
 40
1.0
 50
90.0
 51
180.0
  0
ARC
  5
99B8
  8
DANMEN
  6
CONTINUOUS
 10
297.48805299999992
 20
200.78984800000001
 30
0.0
 40
1.0
 50
0.0
 51
90.0
  0
LINE
  5
99B9
  8
DANMEN
  6
CONTINUOUS
 10
261.98804899999999
 20
204.83985000000001
 30
0.0
 11
261.98804899999999
 21
197.7398499999999
 31
0.0
  0
LINE
  5
99BA
  8
DANMEN
  6
CONTINUOUS
 10
263.98804899999999
 20
202.13985
 30
0.0
 11
263.98804899999999
 21
200.43985000000001
 31
0.0
  0
LINE
  5
99BB
  8
DANMEN
  6
CONTINUOUS
 10
260.93422700000002
 20
205.3242909999999
 30
0.0
 11
259.80674900000002
 21
201.8299999999999
 31
0.0
  0
LINE
  5
99BC
  8
DANMEN
  6
CONTINUOUS
 10
261.37048399999998
 20
204.83985000000001
 30
0.0
 11
260.38804900000002
 21
201.65697599999999
 31
0.0
  0
ARC
  5
99BD
  8
DANMEN
  6
CONTINUOUS
 10
281.93805200000003
 20
188.224446
 30
0.0
 40
2.0
 50
281.76828899999998
 51
0.0
  0
ARC
  5
99BE
  8
DANMEN
  6
CONTINUOUS
 10
284.93805200000003
 20
196.13984799999989
 30
0.0
 40
1.0
 50
180.0
 51
270.0
  0
ARC
  5
99BF
  8
DANMEN
  6
CONTINUOUS
 10
284.98805199999993
 20
192.63984799999989
 30
0.0
 40
1.0
 50
90.0
 51
180.0
  0
ARC
  5
99C0
  8
DANMEN
  6
CONTINUOUS
 10
284.98805199999993
 20
191.139848
 30
0.0
 40
1.0
 50
180.0
 51
270.0
  0
ARC
  5
99C2
  8
DANMEN
  6
CONTINUOUS
 10
266.98805199999993
 20
182.73984799999999
 30
0.0
 40
1.0
 50
0.0
 51
90.0
  0
LINE
  5
99C3
  8
DANMEN
  6
CONTINUOUS
 10
264.78805199999999
 20
185.43984800000001
 30
0.0
 11
270.28805199999988
 21
185.43984800000001
 31
0.0
  0
ARC
  5
99C4
  8
DANMEN
  6
CONTINUOUS
 10
264.78805199999999
 20
183.43984800000001
 30
0.0
 40
2.0
 50
90.0
 51
180.0
  0
LINE
  5
99C5
  8
DANMEN
  6
CONTINUOUS
 10
262.78805199999999
 20
180.7596519999999
 30
0.0
 11
262.78805199999999
 21
183.43984800000001
 31
0.0
  0
ARC
  5
99C7
  8
DANMEN
  6
CONTINUOUS
 10
261.78805199999988
 20
180.7596519999999
 30
0.0
 40
1.0
 50
281.309932
 51
0.0
  0
LINE
  5
99CA
  8
DANMEN
  6
CONTINUOUS
 10
265.48805199999993
 20
183.73984799999999
 30
0.0
 11
266.98805199999993
 21
183.73984799999999
 31
0.0
  0
LINE
  5
99CB
  8
DANMEN
  6
CONTINUOUS
 10
264.48805199999998
 20
181.23984799999991
 30
0.0
 11
264.48805199999998
 21
182.73984799999999
 31
0.0
  0
LINE
  5
99CC
  8
DANMEN
  6
CONTINUOUS
 10
265.48805199999993
 20
180.23984799999991
 30
0.0
 11
266.121757
 21
180.23984799999991
 31
0.0
  0
LINE
  5
99CD
  8
DANMEN
  6
CONTINUOUS
 10
265.20143400000001
 20
178.73984799999999
 30
0.0
 11
266.121757
 21
178.73984799999999
 31
0.0
  0
ARC
  5
99CE
  8
DANMEN
  6
CONTINUOUS
 10
265.48805199999993
 20
182.73984799999999
 30
0.0
 40
1.0
 50
90.0
 51
180.0
  0
ARC
  5
99CF
  8
DANMEN
  6
CONTINUOUS
 10
265.48805199999993
 20
181.23984799999991
 30
0.0
 40
1.0
 50
180.0
 51
270.0
  0
ARC
  5
99D0
  8
DANMEN
  6
CONTINUOUS
 10
266.121757
 20
179.48984799999999
 30
0.0
 40
0.75
 50
270.0
 51
90.0
  0
LINE
  5
99D4
  8
DANMEN
  6
CONTINUOUS
 10
263.28805199999999
 20
199.639848
 30
0.0
 11
263.588052
 21
199.639848
 31
0.0
  0
LINE
  5
99D5
  8
DANMEN
  6
CONTINUOUS
 10
263.28805199999999
 20
197.4398479999999
 30
0.0
 11
265.78805199999988
 21
197.4398479999999
 31
0.0
  0
LINE
  5
99D6
  8
DANMEN
  6
CONTINUOUS
 10
262.78804899999989
 20
199.63984999999991
 30
0.0
 11
263.788049
 21
199.63984999999991
 31
0.0
  0
ARC
  5
99D8
  8
DANMEN
  6
CONTINUOUS
 10
263.28805199999999
 20
199.13984799999989
 30
0.0
 40
0.5
 50
90.0
 51
180.0
  0
ARC
  5
99DA
  8
DANMEN
  6
CONTINUOUS
 10
263.28805199999999
 20
197.93984800000001
 30
0.0
 40
0.5
 50
180.0
 51
270.0
  0
LINE
  5
99DB
  8
DANMEN
  6
CONTINUOUS
 10
262.78805199999999
 20
199.13984500000001
 30
0.0
 11
262.78805199999999
 21
197.93984800000001
 31
0.0
  0
LINE
  5
99DD
  8
DANMEN
  6
CONTINUOUS
 10
262.78804899999989
 20
199.63984999999991
 30
0.0
 11
262.78804899999989
 21
197.13985
 31
0.0
  0
LINE
  5
99DF
  8
DANMEN
  6
CONTINUOUS
 10
261.11552699999987
 20
197.13985
 30
0.0
 11
262.78804899999989
 21
197.13985
 31
0.0
  0
LINE
  5
99E3
  8
DANMEN
  6
CONTINUOUS
 10
259.788049
 20
201.7455589999999
 30
0.0
 11
259.788049
 21
200.8341409999999
 31
0.0
  0
LINE
  5
99E4
  8
DANMEN
  6
CONTINUOUS
 10
259.80674900000002
 20
200.7496999999999
 30
0.0
 11
260.93422700000002
 21
197.25540899999999
 31
0.0
  0
ARC
  5
99E5
  8
DANMEN
  6
CONTINUOUS
 10
261.11552699999987
 20
197.33985000000001
 30
0.0
 40
0.2
 50
204.97390999999999
 51
270.0
  0
ARC
  5
99E7
  8
DANMEN
  6
CONTINUOUS
 10
259.98804899999999
 20
201.7455589999999
 30
0.0
 40
0.2
 50
155.0260899999999
 51
180.0
  0
ARC
  5
99E9
  8
DANMEN
  6
CONTINUOUS
 10
259.98804899999999
 20
200.8341409999999
 30
0.0
 40
0.2
 50
180.0
 51
204.97390999999999
  0
LINE
  5
99EB
  8
DANMEN
  6
CONTINUOUS
 10
260.38804900000002
 20
201.65697599999999
 30
0.0
 11
260.38804900000002
 21
200.92272299999999
 31
0.0
  0
LINE
  5
99EC
  8
DANMEN
  6
CONTINUOUS
 10
260.38804900000002
 20
200.92272299999999
 30
0.0
 11
261.37048399999998
 21
197.7398499999999
 31
0.0
  0
LINE
  5
99ED
  8
DANMEN
  6
CONTINUOUS
 10
261.37048399999998
 20
197.7398499999999
 30
0.0
 11
261.98804899999999
 21
197.7398499999999
 31
0.0
  0
LINE
  5
99F5
  8
DANMEN
  6
CONTINUOUS
 10
263.588052
 20
199.639848
 30
0.0
 11
263.588052
 21
198.43984800000001
 31
0.0
  0
ARC
  5
99F8
  8
DANMEN
  6
CONTINUOUS
 10
265.78805199999988
 20
197.93984800000001
 30
0.0
 40
0.5
 50
270.0
 51
0.0
  0
LINE
  5
99F9
  8
DANMEN
  6
CONTINUOUS
 10
263.58805499999988
 20
198.43984800000001
 30
0.0
 11
265.28805199999999
 21
198.43984800000001
 31
0.0
  0
LINE
  5
99FA
  8
DANMEN
  6
CONTINUOUS
 10
263.98804899999999
 20
198.43985000000001
 30
0.0
 11
264.58804900000001
 21
198.43985000000001
 31
0.0
  0
ARC
  5
99FC
  8
DANMEN
  6
CONTINUOUS
 10
264.58804900000001
 20
198.63984999999991
 30
0.0
 40
0.2
 50
270.0000179999999
 51
0.0
  0
ARC
  5
99FE
  8
DANMEN
  6
CONTINUOUS
 10
263.98804899999999
 20
198.63984999999991
 30
0.0
 40
0.2
 50
180.0000189999999
 51
270.000001
  0
LINE
  5
9A00
  8
DANMEN
  6
CONTINUOUS
 10
264.78804899999989
 20
199.63984999999991
 30
0.0
 11
264.78804899999989
 21
198.63984999999991
 31
0.0
  0
LINE
  5
9A02
  8
DANMEN
  6
CONTINUOUS
 10
263.98804899999999
 20
200.43985000000001
 30
0.0
 11
264.78804899999989
 21
199.63984999999991
 31
0.0
  0
LINE
  5
9A03
  8
DANMEN
  6
CONTINUOUS
 10
263.788049
 20
199.63984999999991
 30
0.0
 11
263.788049
 21
198.63984999999991
 31
0.0
  0
LINE
  5
9A06
  8
DANMEN
  6
CONTINUOUS
 10
282.28805199999999
 20
188.75298599999999
 30
0.0
 11
282.28805199999999
 21
201.63984799999989
 31
0.0
  0
LINE
  5
9A07
  8
DANMEN
  6
CONTINUOUS
 10
282.34596099999999
 20
186.26648499999999
 30
0.0
 11
270.28409799999991
 21
183.7535969999999
 31
0.0
  0
LINE
  5
9A08
  8
DANMEN
  6
CONTINUOUS
 10
281.492006
 20
187.77400499999999
 30
0.0
 11
270.28805199999988
 21
185.43984800000001
 31
0.0
  0
ARC
  5
9A0A
  8
DANMEN
  6
CONTINUOUS
 10
270.48805199999993
 20
182.77461700000001
 30
0.0
 40
1.0
 50
101.7682889999999
 51
180.0
  0
LINE
  5
9A0C
  8
DANMEN
  6
CONTINUOUS
 10
267.98805199999993
 20
182.106143
 30
0.0
 11
267.98805199999993
 21
182.73984799999999
 31
0.0
  0
LINE
  5
9A0D
  8
DANMEN
  6
CONTINUOUS
 10
269.48805199999993
 20
182.106143
 30
0.0
 11
269.48805199999993
 21
182.77461700000001
 31
0.0
  0
ARC
  5
9A0E
  8
DANMEN
  6
CONTINUOUS
 10
268.73805199999998
 20
182.106143
 30
0.0
 40
0.75
 50
180.0
 51
0.0
  0
ARC
  5
9A11
  8
DANMEN
  6
CONTINUOUS
 10
281.28805199999988
 20
188.75298599999999
 30
0.0
 40
1.0
 50
281.76828899999998
 51
0.0
  0
LINE
  5
9A13
  8
DANMEN
  6
CONTINUOUS
 10
275.28805199999999
 20
200.93984800000001
 30
0.0
 11
281.28805199999988
 21
200.93984800000001
 31
0.0
  0
LINE
  5
9A14
  8
DANMEN
  6
CONTINUOUS
 10
270.28805199999988
 20
201.63984799999989
 30
0.0
 11
274.28805199999988
 21
201.63984799999989
 31
0.0
  0
LINE
  5
9A18
  8
DANMEN
  6
CONTINUOUS
 10
274.28805199999988
 20
201.63984799999989
 30
0.0
 11
275.28805199999999
 21
200.93984800000001
 31
0.0
  0
LINE
  5
9A1B
  8
DANMEN
  6
CONTINUOUS
 10
282.28805199999999
 20
201.63984799999989
 30
0.0
 11
281.28805199999988
 21
200.93984800000001
 31
0.0
  0
ARC
  5
9A1C
  8
DANMEN
  6
CONTINUOUS
 10
300.98805299999992
 20
199.493787
 30
0.0
 40
1.0
 50
180.0
 51
245.3756819999999
  0
LINE
  5
9A1D
  8
DANMEN
  6
CONTINUOUS
 10
299.24867299999988
 20
197.8398479999999
 30
0.0
 11
300.38805200000002
 21
197.8398479999999
 31
0.0
  0
LINE
  5
9A1E
  8
DANMEN
  6
CONTINUOUS
 10
313.13805200000002
 20
190.08984799999999
 30
0.0
 11
289.98805199999993
 21
190.08984799999999
 31
0.0
  0
LINE
  5
9A1F
  8
DANMEN
  6
CONTINUOUS
 10
313.13805200000002
 20
188.43984800000001
 30
0.0
 11
283.93805200000003
 21
188.43984800000001
 31
0.0
  0
ARC
  5
9A20
  8
DANMEN
  6
CONTINUOUS
 10
286.48805199999993
 20
191.139848
 30
0.0
 40
1.0
 50
270.0
 51
0.0
  0
ARC
  5
9A21
  8
DANMEN
  6
CONTINUOUS
 10
289.98805199999993
 20
191.0898479999999
 30
0.0
 40
1.0
 50
180.0
 51
270.0
  0
LINE
  5
9A23
  8
DANMEN
  6
CONTINUOUS
 10
286.48805199999993
 20
190.139848
 30
0.0
 11
284.98805199999993
 21
190.139848
 31
0.0
  0
LINE
  5
9A24
  8
DANMEN
  6
CONTINUOUS
 10
283.93805200000003
 20
188.224446
 30
0.0
 11
283.93805200000003
 21
188.43984800000001
 31
0.0
  0
LINE
  5
9A27
  8
DANMEN
  6
CONTINUOUS
 10
297.48805299999992
 20
201.78984799999989
 30
0.0
 11
283.93805200000003
 21
201.78984799999989
 31
0.0
  0
ARC
  5
9A28
  8
DANMEN
  6
CONTINUOUS
 10
288.23805199999993
 20
191.77355299999991
 30
0.0
 40
0.75
 50
0.0
 51
180.0
  0
ARC
  5
9A2C
  8
DANMEN
  6
CONTINUOUS
 10
285.621757
 20
194.389848
 30
0.0
 40
0.75
 50
270.0
 51
90.0
  0
LINE
  5
9A2D
  8
DANMEN
  6
CONTINUOUS
 10
285.621757
 20
195.139848
 30
0.0
 11
284.93805200000003
 21
195.139848
 31
0.0
  0
LINE
  5
9A2E
  8
DANMEN
  6
CONTINUOUS
 10
287.48805199999993
 20
191.139848
 30
0.0
 11
287.48805199999993
 21
191.77355299999991
 31
0.0
  0
LINE
  5
9A2F
  8
DANMEN
  6
CONTINUOUS
 10
285.621757
 20
193.639848
 30
0.0
 11
284.98805199999993
 21
193.639848
 31
0.0
  0
LINE
  5
9A30
  8
DANMEN
  6
CONTINUOUS
 10
283.98805199999993
 20
191.139848
 30
0.0
 11
283.98805199999993
 21
192.63984799999989
 31
0.0
  0
LINE
  5
9A33
  8
DANMEN
  6
CONTINUOUS
 10
288.98805199999993
 20
191.0898479999999
 30
0.0
 11
288.98805199999993
 21
191.77355299999991
 31
0.0
  0
LINE
  5
9A35
  8
DANMEN
  6
CONTINUOUS
 10
283.93805200000003
 20
196.13984799999989
 30
0.0
 11
283.93805200000003
 21
201.78984799999989
 31
0.0
  0
ARC
  5
9A36
  8
DANMEN
  6
CONTINUOUS
 10
300.48805199999993
 20
199.4095419999999
 30
0.0
 40
2.0
 50
180.0
 51
231.706523
  0
LINE
  5
9A37
  8
DANMEN
  6
CONTINUOUS
 10
298.48805199999993
 20
199.4095419999999
 30
0.0
 11
298.48805199999993
 21
200.78984800000001
 31
0.0
  0
LINE
  5
9A38
  8
DANMEN
  6
CONTINUOUS
 10
299.98805299999998
 20
199.493787
 30
0.0
 11
299.98805299999998
 21
200.73984799999991
 31
0.0
  0
LINE
  5
9A3A
  8
DANMEN
  6
CONTINUOUS
 10
313.13805200000002
 20
201.78984799999989
 30
0.0
 11
313.13805200000002
 21
190.08984799999999
 31
0.0
  0
ARC
  5
9A3B
  8
DANMEN
  6
CONTINUOUS
 10
310.1444029999999
 20
184.53485599999999
 30
0.0
 40
0.5
 50
103.163344
 51
193.16334399999991
  0
LINE
  5
9A3C
  8
DANMEN
  6
CONTINUOUS
 10
313.07418799999988
 20
184.03902099999991
 30
0.0
 11
310.40629000000001
 21
183.41507200000001
 31
0.0
  0
LINE
  5
9A3D
  8
DANMEN
  6
CONTINUOUS
 10
309.805564
 20
183.788071
 30
0.0
 11
309.65754099999998
 21
184.4209919999999
 31
0.0
  0
ARC
  5
9A3E
  8
DANMEN
  6
CONTINUOUS
 10
310.29242599999992
 20
183.90193500000001
 30
0.0
 40
0.5
 50
193.16334399999991
 51
283.163344
  0
LINE
  5
9A41
  8
DANMEN
  6
CONTINUOUS
 10
313.68805200000003
 20
182.43984800000001
 30
0.0
 11
314.28805199999988
 21
182.43984800000001
 31
0.0
  0
ARC
  5
9A42
  8
DANMEN
  6
CONTINUOUS
 10
314.28805199999988
 20
182.93984800000001
 30
0.0
 40
0.5
 50
270.0
 51
0.0
  0
LINE
  5
9A45
  8
DANMEN
  6
CONTINUOUS
 10
313.68805200000003
 20
182.43984800000001
 30
0.0
 11
313.68805200000003
 21
183.55215899999999
 31
0.0
  0
ARC
  5
9A46
  8
DANMEN
  6
CONTINUOUS
 10
313.18805200000003
 20
183.55215899999999
 30
0.0
 40
0.5
 50
0.0
 51
103.163344
  0
LINE
  5
9A49
  8
DANMEN
  6
CONTINUOUS
 10
313.13805200000002
 20
185.748481
 30
0.0
 11
310.03053899999998
 21
185.02171799999991
 31
0.0
  0
LINE
  5
9A4E
  8
DANMEN
  6
CONTINUOUS
 10
313.13805200000002
 20
185.748481
 30
0.0
 11
313.13805200000002
 21
188.43984800000001
 31
0.0
  0
LINE
  5
9A51
  8
DANMEN
  6
CONTINUOUS
 10
313.13805200000002
 20
201.78984799999989
 30
0.0
 11
306.08805199999989
 21
201.78984799999989
 31
0.0
  0
LINE
  5
9A52
  8
DANMEN
  6
CONTINUOUS
 10
303.18805200000003
 20
197.8398479999999
 30
0.0
 11
304.32743099999999
 21
197.8398479999999
 31
0.0
  0
LINE
  5
9A53
  8
DANMEN
  6
CONTINUOUS
 10
302.88805200000002
 20
198.139848
 30
0.0
 11
302.88805200000002
 21
198.402916
 31
0.0
  0
ARC
  5
9A54
  8
DANMEN
  6
CONTINUOUS
 10
302.588052
 20
199.493787
 30
0.0
 40
1.0
 50
294.62431800000002
 51
0.0
  0
ARC
  5
9A55
  8
DANMEN
  6
CONTINUOUS
 10
303.088052
 20
198.402916
 30
0.0
 40
0.2
 50
114.6243179999999
 51
180.0
  0
LINE
  5
9A56
  8
DANMEN
  6
CONTINUOUS
 10
303.588052
 20
199.493787
 30
0.0
 11
303.588052
 21
200.73984799999991
 31
0.0
  0
ARC
  5
9A57
  8
DANMEN
  6
CONTINUOUS
 10
300.48805199999993
 20
198.402916
 30
0.0
 40
0.2
 50
0.0
 51
65.375681999999983
  0
LINE
  5
9A58
  8
DANMEN
  6
CONTINUOUS
 10
300.68805200000003
 20
198.139848
 30
0.0
 11
300.68805200000003
 21
198.402916
 31
0.0
  0
LINE
  5
9A59
  8
DANMEN
  6
CONTINUOUS
 10
300.98805299999992
 20
201.73984799999991
 30
0.0
 11
302.588052
 21
201.73984799999991
 31
0.0
  0
ARC
  5
9A5C
  8
DANMEN
  6
CONTINUOUS
 10
303.18805200000003
 20
198.139848
 30
0.0
 40
0.3
 50
180.0
 51
270.0
  0
ARC
  5
9A5D
  8
DANMEN
  6
CONTINUOUS
 10
300.38805200000002
 20
198.139848
 30
0.0
 40
0.3
 50
270.0
 51
0.0
  0
ARC
  5
9A5E
  8
DANMEN
  6
CONTINUOUS
 10
303.088052
 20
199.4095419999999
 30
0.0
 40
2.0
 50
308.293477
 51
0.0
  0
LINE
  5
9A5F
  8
DANMEN
  6
CONTINUOUS
 10
305.088052
 20
199.4095419999999
 30
0.0
 11
305.088052
 21
200.78984800000001
 31
0.0
  0
LINE
  5
9A62
  8
DANMEN
  6
CONTINUOUS
 10
309.57894099999999
 20
244.43984699999999
 30
0.0
 11
280.097961
 21
244.43984699999999
 31
0.0
  0
LINE
  5
9A63
  8
DANMEN
  6
CONTINUOUS
 10
297.48805599999997
 20
242.78984700000001
 30
0.0
 11
280.9380589999999
 21
242.78984700000001
 31
0.0
  0
LINE
  5
9A64
  8
DANMEN
  6
CONTINUOUS
 10
312.98805199999993
 20
203.43984800000001
 30
0.0
 11
271.43805200000003
 21
203.43984800000001
 31
0.0
  0
LINE
  5
9A65
  8
DANMEN
  6
DASHED
 10
270.28805199999988
 20
226.43894499999999
 30
0.0
 11
302.08805199999989
 21
226.43894499999999
 31
0.0
  0
LINE
  5
9A66
  8
DANMEN
  6
DASHED
 10
270.78805199999988
 20
225.43894499999999
 30
0.0
 11
301.588052
 21
225.43894499999999
 31
0.0
  0
LINE
  5
9A67
  8
DANMEN
  6
CONTINUOUS
 10
269.78805599999993
 20
208.939843
 30
0.0
 11
269.78805599999993
 21
245.93984699999999
 31
0.0
  0
LINE
  5
9A68
  8
DANMEN
  6
CONTINUOUS
 10
271.43805600000002
 20
231.78985299999991
 30
0.0
 11
271.43805600000002
 21
210.089843
 31
0.0
  0
LINE
  5
9A69
  8
DANMEN
  6
DASHED
 10
270.78805199999988
 20
209.7398399999999
 30
0.0
 11
270.78805199999988
 21
225.43894499999999
 31
0.0
  0
LINE
  5
9A6A
  8
DANMEN
  6
DASHED
 10
269.78805199999999
 20
221.43894499999999
 30
0.0
 11
269.78805199999999
 21
225.93894499999999
 31
0.0
  0
LINE
  5
9A6B
  8
DANMEN
  6
CONTINUOUS
 10
263.28805199999999
 20
205.43984800000001
 30
0.0
 11
269.78805199999999
 21
205.43984800000001
 31
0.0
  0
LINE
  5
9A6C
  8
DANMEN
  6
CONTINUOUS
 10
266.28805199999988
 20
203.63984799999989
 30
0.0
 11
269.78805199999999
 21
203.63984799999989
 31
0.0
  0
LINE
  5
9A6D
  8
DANMEN
  6
DASHED
 10
264.28805199999988
 20
220.43894499999999
 30
0.0
 11
269.78805199999999
 21
220.43894499999999
 31
0.0
  0
LINE
  5
9A6E
  8
DANMEN
  6
DASHED
 10
263.28805199999999
 20
221.43894499999999
 30
0.0
 11
269.78805199999999
 21
221.43894499999999
 31
0.0
  0
LINE
  5
9A6F
  8
DANMEN
  6
CONTINUOUS
 10
263.28805199999999
 20
203.23984799999991
 30
0.0
 11
263.588052
 21
203.23984799999991
 31
0.0
  0
LINE
  5
9A70
  8
DANMEN
  6
CONTINUOUS
 10
262.78804899999989
 20
202.93985000000001
 30
0.0
 11
263.788049
 21
202.93985000000001
 31
0.0
  0
ARC
  5
9A72
  8
DANMEN
  6
CONTINUOUS
 10
263.28805199999999
 20
203.73984799999991
 30
0.0
 40
0.5
 50
180.0
 51
270.0
  0
ARC
  5
9A74
  8
DANMEN
  6
CONTINUOUS
 10
263.28805199999999
 20
204.93984800000001
 30
0.0
 40
0.5
 50
90.0
 51
180.0
  0
LINE
  5
9A75
  8
DANMEN
  6
CONTINUOUS
 10
262.78805199999999
 20
204.93984800000001
 30
0.0
 11
262.78805199999999
 21
203.73985099999999
 31
0.0
  0
LINE
  5
9A76
  8
DANMEN
  6
CONTINUOUS
 10
261.11552699999987
 20
205.43985000000001
 30
0.0
 11
262.78804899999989
 21
205.43985000000001
 31
0.0
  0
LINE
  5
9A77
  8
DANMEN
  6
CONTINUOUS
 10
262.78804899999989
 20
205.43985000000001
 30
0.0
 11
262.78804899999989
 21
202.93985000000001
 31
0.0
  0
ARC
  5
9A7A
  8
DANMEN
  6
CONTINUOUS
 10
261.11552699999987
 20
205.2398499999999
 30
0.0
 40
0.2
 50
90.0
 51
155.0260899999999
  0
LINE
  5
9A7C
  8
DANMEN
  6
CONTINUOUS
 10
261.37048399999998
 20
204.83985000000001
 30
0.0
 11
261.98804899999999
 21
204.83985000000001
 31
0.0
  0
LINE
  5
9A84
  8
DANMEN
  6
CONTINUOUS
 10
263.58805499999988
 20
204.43984800000001
 30
0.0
 11
265.28805199999999
 21
204.43984800000001
 31
0.0
  0
LINE
  5
9A85
  8
DANMEN
  6
CONTINUOUS
 10
263.588052
 20
204.43984800000001
 30
0.0
 11
263.588052
 21
203.23984799999991
 31
0.0
  0
LINE
  5
9A86
  8
DANMEN
  6
CONTINUOUS
 10
264.78804899999989
 20
203.93984999999989
 30
0.0
 11
264.78804899999989
 21
202.93985000000001
 31
0.0
  0
LINE
  5
9A87
  8
DANMEN
  6
CONTINUOUS
 10
263.98804899999999
 20
204.13985
 30
0.0
 11
264.58804900000001
 21
204.13985
 31
0.0
  0
LINE
  5
9A88
  8
DANMEN
  6
CONTINUOUS
 10
263.788049
 20
203.93984999999989
 30
0.0
 11
263.788049
 21
202.93985000000001
 31
0.0
  0
ARC
  5
9A8A
  8
DANMEN
  6
CONTINUOUS
 10
264.58804900000001
 20
203.93984999999989
 30
0.0
 40
0.2
 50
0.0
 51
89.999981999999974
  0
ARC
  5
9A8C
  8
DANMEN
  6
CONTINUOUS
 10
263.98804899999999
 20
203.93984999999989
 30
0.0
 40
0.2
 50
89.999981999999974
 51
180.0000189999999
  0
LINE
  5
9A8E
  8
DANMEN
  6
CONTINUOUS
 10
264.78804899999989
 20
202.93985000000001
 30
0.0
 11
263.98804899999999
 21
202.13985
 31
0.0
  0
LINE
  5
9A92
  8
DANMEN
  6
DASHED
 10
263.28805199999999
 20
219.93894499999999
 30
0.0
 11
263.78805199999988
 21
219.93894499999999
 31
0.0
  0
LINE
  5
9A93
  8
DANMEN
  6
DASHED
 10
262.78805199999999
 20
220.43894499999999
 30
0.0
 11
262.78805199999999
 21
220.93894499999999
 31
0.0
  0
ARC
  5
9A94
  8
DANMEN
  6
DASHED
 10
263.28805199999999
 20
220.93894499999999
 30
0.0
 40
0.5
 50
90.0
 51
180.0
  0
ARC
  5
9A96
  8
DANMEN
  6
DASHED
 10
263.28805199999999
 20
220.43894499999999
 30
0.0
 40
0.5
 50
180.0
 51
270.0
  0
ARC
  5
9A99
  8
DANMEN
  6
DASHED
 10
264.28805199999988
 20
219.93894499999999
 30
0.0
 40
0.5
 50
90.0
 51
180.0
  0
LINE
  5
9A9B
  8
DANMEN
  6
DASHED
 10
269.78805199999999
 20
208.43983999999989
 30
0.0
 11
269.78805199999999
 21
220.43894499999999
 31
0.0
  0
LINE
  5
9A9C
  8
DANMEN
  6
CONTINUOUS
 10
273.38805600000001
 20
208.58984299999989
 30
0.0
 11
273.38805600000001
 21
204.43983999999989
 31
0.0
  0
LINE
  5
9A9D
  8
DANMEN
  6
CONTINUOUS
 10
271.88805600000001
 20
204.43983999999989
 30
0.0
 11
271.88805600000001
 21
208.43984299999991
 31
0.0
  0
LINE
  5
9A9E
  8
DANMEN
  6
CONTINUOUS
 10
269.78805199999999
 20
207.93984800000001
 30
0.0
 11
269.78805199999999
 21
205.43984800000001
 31
0.0
  0
LINE
  5
9A9F
  8
DANMEN
  6
CONTINUOUS
 10
271.78805199999999
 20
207.93984800000001
 30
0.0
 11
271.78805199999999
 21
206.93984800000001
 31
0.0
  0
LINE
  5
9AA0
  8
DANMEN
  6
DASHED
 10
271.78805199999999
 20
208.73983999999999
 30
0.0
 11
271.78805199999999
 21
206.93894499999999
 31
0.0
  0
LINE
  5
9AA1
  8
DANMEN
  6
DASHED
 10
272.78805199999988
 20
208.73983999999999
 30
0.0
 11
272.78805199999988
 21
204.58992900000001
 31
0.0
  0
LINE
  5
9AA2
  8
DANMEN
  6
CONTINUOUS
 10
271.43805200000003
 20
206.93984800000001
 30
0.0
 11
271.78805199999999
 21
206.93984800000001
 31
0.0
  0
LINE
  5
9AA3
  8
DANMEN
  6
DASHED
 10
271.78805199999999
 20
206.93894499999999
 30
0.0
 11
271.48805199999993
 21
206.73894499999989
 31
0.0
  0
LINE
  5
9AA4
  8
DANMEN
  6
DASHED
 10
271.48805199999993
 20
206.23894499999989
 30
0.0
 11
272.10578900000002
 21
204.47398100000001
 31
0.0
  0
LINE
  5
9AAA
  8
DANMEN
  6
CONTINUOUS
 10
271.43805200000003
 20
206.93984800000001
 30
0.0
 11
271.43805200000003
 21
203.43984800000001
 31
0.0
  0
LINE
  5
9AAB
  8
DANMEN
  6
CONTINUOUS
 10
269.78805199999999
 20
202.139848
 30
0.0
 11
269.78805199999999
 21
203.63984799999989
 31
0.0
  0
LINE
  5
9AAE
  8
DANMEN
  6
DASHED
 10
271.48805199999993
 20
206.23894499999989
 30
0.0
 11
271.48805199999993
 21
206.73894499999989
 31
0.0
  0
ARC
  5
9AB0
  8
DANMEN
  6
CONTINUOUS
 10
272.88805599999989
 20
204.43983999999989
 30
0.0
 40
0.5
 50
270.0
 51
0.0
  0
LINE
  5
9AB2
  8
DANMEN
  6
CONTINUOUS
 10
272.88805599999989
 20
203.93984
 30
0.0
 11
272.38805600000001
 21
203.93984
 31
0.0
  0
ARC
  5
9AB3
  8
DANMEN
  6
CONTINUOUS
 10
272.38805600000001
 20
204.43983999999989
 30
0.0
 40
0.5
 50
180.0
 51
270.0
  0
ARC
  5
9AB8
  8
DANMEN
  6
DASHED
 10
272.43706800000001
 20
204.58992900000001
 30
0.0
 40
0.350984
 50
199.2900459999999
 51
0.0
  0
LINE
  5
9ABD
  8
DANMEN
  6
CONTINUOUS
 10
271.43805600000002
 20
210.089843
 30
0.0
 11
271.88805600000001
 21
210.089843
 31
0.0
  0
LINE
  5
9ABE
  8
DANMEN
  6
CONTINUOUS
 10
270.28805599999998
 20
208.43984299999991
 30
0.0
 11
271.88805600000001
 21
208.43984299999991
 31
0.0
  0
ARC
  5
9ABF
  8
DANMEN
  6
CONTINUOUS
 10
271.28805199999999
 20
207.93984800000001
 30
0.0
 40
0.5
 50
0.0
 51
90.0
  0
LINE
  5
9AC0
  8
DANMEN
  6
DASHED
 10
270.78805199999988
 20
209.7398399999999
 30
0.0
 11
271.78805199999999
 21
209.7398399999999
 31
0.0
  0
LINE
  5
9AC1
  8
DANMEN
  6
DASHED
 10
270.78805199999988
 20
208.73983999999999
 30
0.0
 11
271.78805199999999
 21
208.73983999999999
 31
0.0
  0
ARC
  5
9AC4
  8
DANMEN
  6
CONTINUOUS
 10
270.28805599999998
 20
208.939843
 30
0.0
 40
0.5
 50
180.0
 51
270.0
  0
ARC
  5
9AC6
  8
DANMEN
  6
CONTINUOUS
 10
270.28805199999988
 20
207.93984800000001
 30
0.0
 40
0.5
 50
90.0
 51
180.0
  0
LINE
  5
9AC7
  8
DANMEN
  6
CONTINUOUS
 10
270.28805199999988
 20
208.4398479999999
 30
0.0
 11
271.28805199999999
 21
208.4398479999999
 31
0.0
  0
LINE
  5
9ACB
  8
DANMEN
  6
DASHED
 10
270.78805199999988
 20
208.73983999999999
 30
0.0
 11
270.78805199999988
 21
208.43983999999989
 31
0.0
  0
LINE
  5
9ACC
  8
DANMEN
  6
DASHED
 10
269.78805199999999
 20
208.43983999999989
 30
0.0
 11
270.78805199999988
 21
208.43983999999989
 31
0.0
  0
ARC
  5
9ACF
  8
DANMEN
  6
CONTINUOUS
 10
271.88805600000001
 20
208.58984299999989
 30
0.0
 40
1.5
 50
0.0
 51
90.0
  0
ARC
  5
9AD3
  8
DANMEN
  6
DASHED
 10
271.78805199999999
 20
208.73983999999999
 30
0.0
 40
1.0
 50
0.0
 51
90.0
  0
ARC
  5
9AD8
  8
DANMEN
  6
CONTINUOUS
 10
279.43805900000001
 20
237.2898469999999
 30
0.0
 40
1.5
 50
270.0
 51
0.0
  0
LINE
  5
9AD9
  8
DANMEN
  6
CONTINUOUS
 10
279.43805900000001
 20
235.78984700000001
 30
0.0
 11
272.78805299999988
 21
235.78984700000001
 31
0.0
  0
ARC
  5
9ADB
  8
DANMEN
  6
DASHED
 10
270.28805199999988
 20
225.93894499999999
 30
0.0
 40
0.5
 50
90.0
 51
180.0
  0
LINE
  5
9ADD
  8
DANMEN
  6
CONTINUOUS
 10
271.43805299999991
 20
231.78984700000001
 30
0.0
 11
272.78805299999988
 21
234.78984700000001
 31
0.0
  0
LINE
  5
9AE0
  8
DANMEN
  6
CONTINUOUS
 10
272.78805299999988
 20
235.78984700000001
 30
0.0
 11
272.78805299999988
 21
234.78984700000001
 31
0.0
  0
LINE
  5
9AE2
  8
DANMEN
  6
CONTINUOUS
 10
279.28805899999992
 20
237.43984699999999
 30
0.0
 11
272.78805299999988
 21
237.43984699999999
 31
0.0
  0
LINE
  5
9AE3
  8
DANMEN
  6
CONTINUOUS
 10
271.98803399999991
 20
244.23984400000001
 30
0.0
 11
278.53551099999987
 21
240.1398439999999
 31
0.0
  0
LINE
  5
9AE4
  8
DANMEN
  6
CONTINUOUS
 10
274.08803399999988
 20
244.4586799999999
 30
0.0
 11
279.15339899999998
 21
241.28677200000001
 31
0.0
  0
LINE
  5
9AE5
  8
DANMEN
  6
CONTINUOUS
 10
271.43805299999991
 20
244.93984699999999
 30
0.0
 11
271.43805299999991
 21
241.43984699999999
 31
0.0
  0
LINE
  5
9AE6
  8
DANMEN
  6
CONTINUOUS
 10
271.43805299999991
 20
241.43984699999999
 30
0.0
 11
272.78805299999988
 21
238.43984699999999
 31
0.0
  0
LINE
  5
9AEC
  8
DANMEN
  6
CONTINUOUS
 10
272.78805299999988
 20
237.43984699999999
 30
0.0
 11
272.78805299999988
 21
238.43984699999999
 31
0.0
  0
LINE
  5
9AED
  8
DANMEN
  6
CONTINUOUS
 10
271.97903600000001
 20
246.43984699999999
 30
0.0
 11
270.28805599999998
 21
246.43984699999999
 31
0.0
  0
LINE
  5
9AEE
  8
DANMEN
  6
CONTINUOUS
 10
271.43805299999991
 20
244.93984699999999
 30
0.0
 11
272.48805299999992
 21
244.93984699999999
 31
0.0
  0
LINE
  5
9AEF
  8
DANMEN
  6
CONTINUOUS
 10
270.28803499999998
 20
246.43984399999999
 30
0.0
 11
271.73803399999991
 21
246.43984399999999
 31
0.0
  0
ARC
  5
9AF1
  8
DANMEN
  6
CONTINUOUS
 10
270.28805599999998
 20
245.93984699999999
 30
0.0
 40
0.5
 50
90.0
 51
180.0
  0
ARC
  5
9AF3
  8
DANMEN
  6
CONTINUOUS
 10
270.28803499999998
 20
246.93984399999991
 30
0.0
 40
0.5
 50
180.0
 51
270.0
  0
LINE
  5
9AF7
  8
DANMEN
  6
CONTINUOUS
 10
272.78805299999988
 20
245.239847
 30
0.0
 11
272.78805299999988
 21
245.43984699999999
 31
0.0
  0
ARC
  5
9AF8
  8
DANMEN
  6
CONTINUOUS
 10
272.48805299999992
 20
245.239847
 30
0.0
 40
0.3
 50
270.0
 51
0.0
  0
LINE
  5
9AFC
  8
DANMEN
  6
CONTINUOUS
 10
272.78805299999988
 20
245.43984699999999
 30
0.0
 11
272.42624999999998
 21
246.16345299999989
 31
0.0
  0
ARC
  5
9AFD
  8
DANMEN
  6
CONTINUOUS
 10
271.97903600000001
 20
245.93984699999999
 30
0.0
 40
0.5
 50
26.565051
 51
90.0
  0
LINE
  5
9AFF
  8
DANMEN
  6
CONTINUOUS
 10
272.78803399999998
 20
246.73984400000001
 30
0.0
 11
272.78803399999998
 21
244.93984399999991
 31
0.0
  0
LINE
  5
9B00
  8
DANMEN
  6
CONTINUOUS
 10
271.73803399999991
 20
246.73984400000001
 30
0.0
 11
272.78803399999998
 21
246.73984400000001
 31
0.0
  0
LINE
  5
9B02
  8
DANMEN
  6
CONTINUOUS
 10
271.73803399999991
 20
246.73984400000001
 30
0.0
 11
271.73803399999991
 21
246.43984399999999
 31
0.0
  0
LINE
  5
9B04
  8
DANMEN
  6
CONTINUOUS
 10
271.98803399999991
 20
244.73984400000001
 30
0.0
 11
272.78803399999998
 21
244.93984399999991
 31
0.0
  0
LINE
  5
9B05
  8
DANMEN
  6
CONTINUOUS
 10
271.98803399999991
 20
244.73984400000001
 30
0.0
 11
271.98803399999991
 21
244.23984400000001
 31
0.0
  0
LINE
  5
9B08
  8
DANMEN
  6
CONTINUOUS
 10
274.08803399999988
 20
247.23984400000001
 30
0.0
 11
274.08803399999988
 21
244.4586799999999
 31
0.0
  0
LINE
  5
9B09
  8
DANMEN
  6
CONTINUOUS
 10
272.23803399999991
 20
248.23984400000001
 30
0.0
 11
273.08803399999999
 21
248.23984400000001
 31
0.0
  0
LINE
  5
9B0F
  8
DANMEN
  6
CONTINUOUS
 10
279.28805899999992
 20
242.43984699999999
 30
0.0
 11
279.60767099999993
 21
244.03790499999999
 31
0.0
  0
LINE
  5
9B10
  8
DANMEN
  6
CONTINUOUS
 10
280.9380589999999
 20
242.78984700000001
 30
0.0
 11
280.9380589999999
 21
237.2898469999999
 31
0.0
  0
LINE
  5
9B12
  8
DANMEN
  6
CONTINUOUS
 10
279.28805899999992
 20
242.43984699999999
 30
0.0
 11
279.28805899999992
 21
237.43984699999999
 31
0.0
  0
LINE
  5
9B14
  8
DANMEN
  6
CONTINUOUS
 10
279.388034
 20
240.86300099999991
 30
0.0
 11
279.388034
 21
240.6398439999999
 31
0.0
  0
LINE
  5
9B15
  8
DANMEN
  6
CONTINUOUS
 10
278.53551099999987
 20
240.1398439999999
 30
0.0
 11
278.88803399999989
 21
240.1398439999999
 31
0.0
  0
ARC
  5
9B16
  8
DANMEN
  6
CONTINUOUS
 10
278.88803399999989
 20
240.86300099999991
 30
0.0
 40
0.5
 50
0.0
 51
57.945390000000003
  0
ARC
  5
9B18
  8
DANMEN
  6
CONTINUOUS
 10
278.88803399999989
 20
240.6398439999999
 30
0.0
 40
0.5
 50
270.0
 51
0.0
  0
ARC
  5
9B1B
  8
DANMEN
  6
CONTINUOUS
 10
280.097961
 20
243.9398469999999
 30
0.0
 40
0.5
 50
90.0
 51
168.69006799999991
  0
LINE
  5
9B1E
  8
DANMEN
  6
CONTINUOUS
 10
313.138058
 20
243.43195499999999
 30
0.0
 11
313.138058
 21
222.2969249999999
 31
0.0
  0
LINE
  5
9B1F
  8
DANMEN
  6
CONTINUOUS
 10
310.28804999999988
 20
235.29911999999999
 30
0.0
 11
310.28804999999988
 21
217.43984800000001
 31
0.0
  0
LINE
  5
9B20
  8
DANMEN
  6
CONTINUOUS
 10
303.38805600000001
 20
227.43984900000001
 30
0.0
 11
303.38805600000001
 21
222.43984900000001
 31
0.0
  0
LINE
  5
9B21
  8
DANMEN
  6
CONTINUOUS
 10
296.73805599999997
 20
225.789849
 30
0.0
 11
296.73805599999997
 21
221.68984900000001
 31
0.0
  0
LINE
  5
9B22
  8
DANMEN
  6
CONTINUOUS
 10
298.38805600000001
 20
225.639848
 30
0.0
 11
298.38805600000001
 21
221.83984899999999
 31
0.0
  0
ARC
  5
9B23
  8
DANMEN
  6
CONTINUOUS
 10
301.08316000000002
 20
224.639849
 30
0.0
 40
1.0
 50
12.339088
 51
90.0
  0
LINE
  5
9B24
  8
DANMEN
  6
CONTINUOUS
 10
310.588053
 20
243.13917499999991
 30
0.0
 11
310.588053
 21
217.72001399999999
 31
0.0
  0
LINE
  5
9B25
  8
DANMEN
  6
CONTINUOUS
 10
310.28805299999999
 20
242.93984699999999
 30
0.0
 11
310.28805299999999
 21
217.72001399999999
 31
0.0
  0
LINE
  5
9B26
  8
DANMEN
  6
CONTINUOUS
 10
312.28805299999988
 20
242.93984699999999
 30
0.0
 11
311.30477400000001
 21
218.20015699999999
 31
0.0
  0
LINE
  5
9B27
  8
DANMEN
  6
DASHED
 10
301.588052
 20
223.43894499999999
 30
0.0
 11
301.588052
 21
225.43894499999999
 31
0.0
  0
LINE
  5
9B28
  8
DANMEN
  6
DASHED
 10
302.588052
 20
222.93894499999999
 30
0.0
 11
302.588052
 21
225.93894499999999
 31
0.0
  0
CIRCLE
  5
9B29
  8
DANMEN
  6
CONTINUOUS
 10
300.13805600000001
 20
223.73984899999999
 30
0.0
 40
2.0
  0
ARC
  5
9B2A
  8
DANMEN
  6
CONTINUOUS
 10
299.48805599999997
 20
220.8398489999999
 30
0.0
 40
1.0
 50
0.0
 51
90.0
  0
ARC
  5
9B2B
  8
DANMEN
  6
CONTINUOUS
 10
299.98805599999997
 20
217.939843
 30
0.0
 40
0.5
 50
270.0
 51
0.0
  0
ARC
  5
9B2C
  8
DANMEN
  6
DASHED
 10
300.588052
 20
215.8398399999999
 30
0.0
 40
1.0
 50
180.0
 51
270.0
  0
ARC
  5
9B2D
  8
DANMEN
  6
DASHED
 10
300.588052
 20
222.43894499999999
 30
0.0
 40
1.0
 50
90.0
 51
180.0
  0
LINE
  5
9B2E
  8
DANMEN
  6
CONTINUOUS
 10
298.98805700000003
 20
220.18984900000001
 30
0.0
 11
298.98805700000003
 21
217.939843
 31
0.0
  0
LINE
  5
9B2F
  8
DANMEN
  6
DASHED
 10
299.588052
 20
215.8398399999999
 30
0.0
 11
299.588052
 21
222.43894499999999
 31
0.0
  0
LINE
  5
9B30
  8
DANMEN
  6
CONTINUOUS
 10
299.98805599999997
 20
217.439843
 30
0.0
 11
299.48805599999997
 21
217.439843
 31
0.0
  0
ARC
  5
9B31
  8
DANMEN
  6
CONTINUOUS
 10
299.48805599999997
 20
217.939843
 30
0.0
 40
0.5
 50
180.0
 51
270.0
  0
LINE
  5
9B36
  8
DANMEN
  6
CONTINUOUS
 10
298.23805699999991
 20
220.18984900000001
 30
0.0
 11
298.98805700000003
 21
220.18984900000001
 31
0.0
  0
LINE
  5
9B38
  8
DANMEN
  6
CONTINUOUS
 10
298.38805600000001
 20
221.83984899999999
 30
0.0
 11
299.48805599999997
 21
221.83984899999999
 31
0.0
  0
ARC
  5
9B39
  8
DANMEN
  6
CONTINUOUS
 10
298.23805699999991
 20
221.68984900000001
 30
0.0
 40
1.5
 50
180.0
 51
270.0
  0
CIRCLE
  5
9B3D
  8
DANMEN
  6
CONTINUOUS
 10
299.72625499999992
 20
224.5637569999999
 30
0.0
 40
0.1
  0
CIRCLE
  5
9B3E
  8
DANMEN
  6
CONTINUOUS
 10
298.60196400000001
 20
223.8771669999999
 30
0.0
 40
0.1
  0
CIRCLE
  5
9B3F
  8
DANMEN
  6
CONTINUOUS
 10
298.94525899999991
 20
224.90705199999999
 30
0.0
 40
0.1
  0
CIRCLE
  5
9B40
  8
DANMEN
  6
CONTINUOUS
 10
299.36579599999999
 20
223.37080700000001
 30
0.0
 40
0.1
  0
CIRCLE
  5
9B41
  8
DANMEN
  6
CONTINUOUS
 10
300.03522099999992
 20
222.6842169999999
 30
0.0
 40
0.1
  0
CIRCLE
  5
9B42
  8
DANMEN
  6
CONTINUOUS
 10
298.81652300000002
 20
222.6842169999999
 30
0.0
 40
0.1
  0
CIRCLE
  5
9B43
  8
DANMEN
  6
CONTINUOUS
 10
299.666179
 20
222.126362
 30
0.0
 40
0.1
  0
LINE
  5
9B44
  8
DANMEN
  6
CONTINUOUS
 10
310.28804999999988
 20
215.78984800000001
 30
0.0
 11
310.28804999999988
 21
203.43984800000001
 31
0.0
  0
LINE
  5
9B45
  8
DANMEN
  6
CONTINUOUS
 10
312.98805199999993
 20
215.78984800000001
 30
0.0
 11
312.98805199999993
 21
203.43984800000001
 31
0.0
  0
LINE
  5
9B47
  8
DANMEN
  6
CONTINUOUS
 10
302.38805200000002
 20
217.43984800000001
 30
0.0
 11
312.98805199999993
 21
217.43984800000001
 31
0.0
  0
LINE
  5
9B48
  8
DANMEN
  6
CONTINUOUS
 10
301.088052
 20
215.78984800000001
 30
0.0
 11
312.98805199999993
 21
215.78984800000001
 31
0.0
  0
LINE
  5
9B49
  8
DANMEN
  6
CONTINUOUS
 10
300.48805699999991
 20
220.8398489999999
 30
0.0
 11
300.48805699999991
 21
217.939843
 31
0.0
  0
LINE
  5
9B4A
  8
DANMEN
  6
CONTINUOUS
 10
300.588052
 20
221.93984800000001
 30
0.0
 11
300.588052
 21
216.28984799999989
 31
0.0
  0
LINE
  5
9B4B
  8
DANMEN
  6
CONTINUOUS
 10
302.38805200000002
 20
221.43984800000001
 30
0.0
 11
302.38805200000002
 21
217.43984800000001
 31
0.0
  0
LINE
  5
9B4C
  8
DANMEN
  6
DASHED
 10
300.588052
 20
217.93984
 30
0.0
 11
300.588052
 21
222.43894499999999
 31
0.0
  0
ARC
  5
9B50
  8
DANMEN
  6
CONTINUOUS
 10
301.088052
 20
216.28984799999989
 30
0.0
 40
0.5
 50
180.0
 51
270.0
  0
LINE
  5
9B51
  8
DANMEN
  6
DASHED
 10
301.41235
 20
214.83984000000001
 30
0.0
 11
300.588052
 21
214.83984000000001
 31
0.0
  0
LINE
  5
9B52
  8
DANMEN
  6
DASHED
 10
301.68805200000003
 20
215.8398399999999
 30
0.0
 11
300.78805199999999
 21
215.8398399999999
 31
0.0
  0
LINE
  5
9B53
  8
DANMEN
  6
DASHED
 10
300.78805199999999
 20
215.8398399999999
 30
0.0
 11
300.78805199999999
 21
217.3398399999999
 31
0.0
  0
ARC
  5
9B57
  8
DANMEN
  6
DASHED
 10
302.3880529999999
 20
214.83984000000001
 30
0.0
 40
0.5
 50
239.17274199999989
 51
59.172742000000007
  0
LINE
  5
9B58
  8
DANMEN
  6
DASHED
 10
301.68805200000003
 20
215.8398399999999
 30
0.0
 11
302.64427799999987
 21
215.2691979999999
 31
0.0
  0
LINE
  5
9B59
  8
DANMEN
  6
DASHED
 10
301.41235
 20
214.83984000000001
 30
0.0
 11
302.13182599999999
 21
214.41048199999989
 31
0.0
  0
ARC
  5
9B5D
  8
DANMEN
  6
DASHED
 10
301.588052
 20
217.93984
 30
0.0
 40
1.0
 50
180.0
 51
216.86989800000001
  0
ARC
  5
9B60
  8
DANMEN
  6
CONTINUOUS
 10
304.13805200000002
 20
221.93984800000001
 30
0.0
 40
0.5
 50
270.0
 51
0.0
  0
LINE
  5
9B61
  8
DANMEN
  6
CONTINUOUS
 10
301.088052
 20
222.43984800000001
 30
0.0
 11
304.63805200000002
 21
222.43984800000001
 31
0.0
  0
LINE
  5
9B64
  8
DANMEN
  6
CONTINUOUS
 10
303.38805600000001
 20
222.43984900000001
 30
0.0
 11
302.99050399999999
 21
222.43984800000001
 31
0.0
  0
ARC
  5
9B66
  8
DANMEN
  6
CONTINUOUS
 10
302.99050399999999
 20
222.9398479999999
 30
0.0
 40
0.5
 50
192.33908799999989
 51
270.0
  0
LINE
  5
9B67
  8
DANMEN
  6
CONTINUOUS
 10
302.06006000000002
 20
224.853545
 30
0.0
 11
302.50205399999987
 21
222.833
 31
0.0
  0
ARC
  5
9B6B
  8
DANMEN
  6
CONTINUOUS
 10
301.088052
 20
221.93984800000001
 30
0.0
 40
0.5
 50
90.0
 51
180.0
  0
LINE
  5
9B6C
  8
DANMEN
  6
CONTINUOUS
 10
302.38805200000002
 20
221.43984800000001
 30
0.0
 11
304.13805200000002
 21
221.43984800000001
 31
0.0
  0
LINE
  5
9B6E
  8
DANMEN
  6
DASHED
 10
300.588052
 20
223.43894499999999
 30
0.0
 11
301.588052
 21
223.43894499999999
 31
0.0
  0
ARC
  5
9B71
  8
DANMEN
  6
DASHED
 10
302.08805199999989
 20
222.93894499999999
 30
0.0
 40
0.5
 50
270.0
 51
0.0
  0
LINE
  5
9B72
  8
DANMEN
  6
DASHED
 10
300.588052
 20
222.43894499999999
 30
0.0
 11
302.08805199999989
 21
222.43894499999999
 31
0.0
  0
CIRCLE
  5
9B73
  8
DANMEN
  6
CONTINUOUS
 10
300.91062299999987
 20
224.90705199999999
 30
0.0
 40
0.1
  0
CIRCLE
  5
9B74
  8
DANMEN
  6
CONTINUOUS
 10
300.91062299999987
 20
224.90705199999999
 30
0.0
 40
0.1
  0
CIRCLE
  5
9B75
  8
DANMEN
  6
CONTINUOUS
 10
300.91062299999987
 20
224.90705199999999
 30
0.0
 40
0.1
  0
CIRCLE
  5
9B76
  8
DANMEN
  6
CONTINUOUS
 10
301.51138900000001
 20
224.01448500000001
 30
0.0
 40
0.1
  0
CIRCLE
  5
9B77
  8
DANMEN
  6
CONTINUOUS
 10
300.67031700000001
 20
223.34505999999999
 30
0.0
 40
0.1
  0
CIRCLE
  5
9B78
  8
DANMEN
  6
CONTINUOUS
 10
301.58004799999992
 20
222.915941
 30
0.0
 40
0.1
  0
CIRCLE
  5
9B79
  8
DANMEN
  6
CONTINUOUS
 10
300.91920599999997
 20
222.2722629999999
 30
0.0
 40
0.1
  0
CIRCLE
  5
9B7A
  8
DANMEN
  6
CONTINUOUS
 10
300.3613509999999
 20
223.96299099999999
 30
0.0
 40
0.1
  0
LINE
  5
9B7D
  8
DANMEN
  6
CONTINUOUS
 10
304.63805200000002
 20
222.43984800000001
 30
0.0
 11
304.63805200000002
 21
221.93984800000001
 31
0.0
  0
LINE
  5
9B7E
  8
DANMEN
  6
CONTINUOUS
 10
312.98805199999993
 20
221.93984800000001
 30
0.0
 11
312.98805199999993
 21
217.43984800000001
 31
0.0
  0
LINE
  5
9B82
  8
DANMEN
  6
CONTINUOUS
 10
310.28805299999999
 20
217.72001399999999
 30
0.0
 11
310.80516799999998
 21
217.72001399999999
 31
0.0
  0
ARC
  5
9B83
  8
DANMEN
  6
CONTINUOUS
 10
310.80516799999998
 20
218.22001399999999
 30
0.0
 40
0.5
 50
270.0
 51
357.72397699999988
  0
ARC
  5
9B87
  8
DANMEN
  6
CONTINUOUS
 10
313.48805299999992
 20
221.93984800000001
 30
0.0
 40
0.5
 50
90.0
 51
180.0
  0
ARC
  5
9B89
  8
DANMEN
  6
CONTINUOUS
 10
314.28805199999988
 20
221.93984800000001
 30
0.0
 40
0.5
 50
0.0
 51
90.0
  0
LINE
  5
9B8A
  8
DANMEN
  6
CONTINUOUS
 10
313.48805299999992
 20
222.43984800000001
 30
0.0
 11
314.28805199999988
 21
222.43984800000001
 31
0.0
  0
LINE
  5
9B8C
  8
DANMEN
  6
CONTINUOUS
 10
298.23805699999991
 20
227.289849
 30
0.0
 11
301.07974000000002
 21
227.289849
 31
0.0
  0
LINE
  5
9B8D
  8
DANMEN
  6
CONTINUOUS
 10
298.38805600000001
 20
225.639849
 30
0.0
 11
301.08316000000002
 21
225.639849
 31
0.0
  0
LINE
  5
9B8E
  8
DANMEN
  6
CONTINUOUS
 10
299.24867699999987
 20
238.83984699999999
 30
0.0
 11
300.38805600000001
 21
238.83984699999999
 31
0.0
  0
ARC
  5
9B8F
  8
DANMEN
  6
CONTINUOUS
 10
300.98805599999997
 20
241.739847
 30
0.0
 40
1.0
 50
90.0
 51
180.0
  0
ARC
  5
9B90
  8
DANMEN
  6
CONTINUOUS
 10
300.98805599999997
 20
240.49378599999989
 30
0.0
 40
1.0
 50
180.0
 51
245.3756819999999
  0
ARC
  5
9B92
  8
DANMEN
  6
CONTINUOUS
 10
298.23805699999991
 20
225.789849
 30
0.0
 40
1.5
 50
90.0
 51
180.0
  0
CIRCLE
  5
9B94
  8
DANMEN
  6
CONTINUOUS
 10
300.11246199999999
 20
225.33617100000001
 30
0.0
 40
0.1
  0
ARC
  5
9B95
  8
DANMEN
  6
CONTINUOUS
 10
297.48805599999997
 20
241.78984700000001
 30
0.0
 40
1.0
 50
0.0
 51
90.0
  0
LINE
  5
9B96
  8
DANMEN
  6
CONTINUOUS
 10
299.98805599999997
 20
240.49378599999989
 30
0.0
 11
299.98805599999997
 21
241.739847
 31
0.0
  0
ARC
  5
9B97
  8
DANMEN
  6
CONTINUOUS
 10
300.48805699999991
 20
240.40953999999999
 30
0.0
 40
2.0
 50
180.0
 51
231.706523
  0
LINE
  5
9B98
  8
DANMEN
  6
CONTINUOUS
 10
298.48805599999997
 20
240.40953999999999
 30
0.0
 11
298.48805599999997
 21
241.78984700000001
 31
0.0
  0
LINE
  5
9B9A
  8
DANMEN
  6
CONTINUOUS
 10
308.6380529999999
 20
236.05311
 30
0.0
 11
308.6380529999999
 21
242.78984700000001
 31
0.0
  0
LINE
  5
9B9B
  8
DANMEN
  6
CONTINUOUS
 10
310.28805299999999
 20
235.6256829999999
 30
0.0
 11
310.28805299999999
 21
242.93984499999999
 31
0.0
  0
LINE
  5
9B9C
  8
DANMEN
  6
CONTINUOUS
 10
301.07974000000002
 20
227.289849
 30
0.0
 11
308.6380529999999
 21
236.05311
 31
0.0
  0
LINE
  5
9B9D
  8
DANMEN
  6
CONTINUOUS
 10
303.38805600000001
 20
227.43984900000001
 30
0.0
 11
310.16667699999999
 21
235.29911999999999
 31
0.0
  0
ARC
  5
9BA3
  8
DANMEN
  6
DASHED
 10
302.08805199999989
 20
225.93894499999999
 30
0.0
 40
0.5
 50
0.0
 51
90.0
  0
ARC
  5
9BA5
  8
DANMEN
  6
CONTINUOUS
 10
309.78805299999988
 20
235.6256829999999
 30
0.0
 40
0.5
 50
319.22222999999991
 51
0.0
  0
LINE
  5
9BA7
  8
DANMEN
  6
CONTINUOUS
 10
308.6380529999999
 20
242.78984700000001
 30
0.0
 11
306.08805599999999
 21
242.78984700000001
 31
0.0
  0
ARC
  5
9BA8
  8
DANMEN
  6
CONTINUOUS
 10
306.08805599999999
 20
241.78984700000001
 30
0.0
 40
1.0
 50
90.0
 51
180.0
  0
ARC
  5
9BA9
  8
DANMEN
  6
CONTINUOUS
 10
302.58805599999999
 20
241.739847
 30
0.0
 40
1.0
 50
0.0
 51
90.0
  0
LINE
  5
9BAA
  8
DANMEN
  6
CONTINUOUS
 10
303.18805600000002
 20
238.83984699999999
 30
0.0
 11
304.32743499999998
 21
238.83984699999999
 31
0.0
  0
ARC
  5
9BAB
  8
DANMEN
  6
CONTINUOUS
 10
300.38805600000001
 20
239.139847
 30
0.0
 40
0.3
 50
270.0
 51
0.0
  0
ARC
  5
9BAC
  8
DANMEN
  6
CONTINUOUS
 10
303.18805600000002
 20
239.139847
 30
0.0
 40
0.3
 50
180.0
 51
270.0
  0
LINE
  5
9BAF
  8
DANMEN
  6
CONTINUOUS
 10
300.68805600000002
 20
239.139847
 30
0.0
 11
300.68805600000002
 21
239.40291499999989
 31
0.0
  0
ARC
  5
9BB0
  8
DANMEN
  6
CONTINUOUS
 10
300.48805699999991
 20
239.40291499999989
 30
0.0
 40
0.2
 50
0.0
 51
65.375681999999983
  0
LINE
  5
9BB1
  8
DANMEN
  6
CONTINUOUS
 10
303.58805599999988
 20
240.49378599999989
 30
0.0
 11
303.58805599999988
 21
241.739847
 31
0.0
  0
ARC
  5
9BB2
  8
DANMEN
  6
CONTINUOUS
 10
303.08805599999988
 20
239.40291499999989
 30
0.0
 40
0.2
 50
114.6243179999999
 51
180.0
  0
ARC
  5
9BB3
  8
DANMEN
  6
CONTINUOUS
 10
302.58805599999999
 20
240.49378599999989
 30
0.0
 40
1.0
 50
294.62431800000002
 51
0.0
  0
LINE
  5
9BB4
  8
DANMEN
  6
CONTINUOUS
 10
302.88805600000001
 20
239.139847
 30
0.0
 11
302.88805600000001
 21
239.40291499999989
 31
0.0
  0
ARC
  5
9BB5
  8
DANMEN
  6
CONTINUOUS
 10
303.08805599999988
 20
240.40953999999999
 30
0.0
 40
2.0
 50
308.293477
 51
0.0
  0
LINE
  5
9BB6
  8
DANMEN
  6
CONTINUOUS
 10
305.08805599999988
 20
240.40953999999999
 30
0.0
 11
305.08805599999988
 21
241.78984700000001
 31
0.0
  0
LINE
  5
9BB7
  8
DANMEN
  6
CONTINUOUS
 10
300.98805599999997
 20
242.739847
 30
0.0
 11
302.58805599999999
 21
242.739847
 31
0.0
  0
LINE
  5
9BBC
  8
DANMEN
  6
CONTINUOUS
 10
311.78805299999988
 20
242.93984699999999
 30
0.0
 11
312.28805299999988
 21
242.93984699999999
 31
0.0
  0
LINE
  5
9BBD
  8
DANMEN
  6
CONTINUOUS
 10
311.78805299999988
 20
243.85289
 30
0.0
 11
310.28805299999999
 21
242.93984699999999
 31
0.0
  0
LINE
  5
9BC0
  8
DANMEN
  6
CONTINUOUS
 10
368.35694699999999
 20
195.20515199999991
 30
0.0
 11
368.35694699999999
 21
190.205152
 31
0.0
  0
ARC
  5
9BC2
  8
DANMEN
  6
CONTINUOUS
 10
368.85694699999999
 20
190.205152
 30
0.0
 40
0.5
 50
180.0
 51
270.0
  0
LINE
  5
9BC3
  8
DANMEN
  6
CONTINUOUS
 10
370.00694700000003
 20
191.355152
 30
0.0
 11
381.70694700000001
 21
191.355152
 31
0.0
  0
ARC
  5
9BC4
  8
DANMEN
  6
CONTINUOUS
 10
369.50694700000003
 20
195.20515199999991
 30
0.0
 40
0.5
 50
0.0
 51
90.0
  0
ARC
  5
9BC6
  8
DANMEN
  6
CONTINUOUS
 10
368.85694699999999
 20
195.20515199999991
 30
0.0
 40
0.5
 50
90.0
 51
180.0
  0
LINE
  5
9BC7
  8
DANMEN
  6
CONTINUOUS
 10
368.85694699999999
 20
195.705152
 30
0.0
 11
369.50694700000003
 21
195.705152
 31
0.0
  0
LINE
  5
9BCA
  8
DANMEN
  6
CONTINUOUS
 10
370.00694700000003
 20
195.20515199999991
 30
0.0
 11
370.00694700000003
 21
191.355152
 31
0.0
  0
LINE
  5
9BCC
  8
SUNPO
  6
CONTINUOUS
 10
344.78805199999999
 20
330.43984799999993
 30
0.0
 11
344.78805199999999
 21
286.783568
 31
0.0
  0
LINE
  5
9BCD
  8
SUNPO
  6
BYBLOCK
 10
334.78805199999988
 20
330.43984799999993
 30
0.0
 11
334.78805199999988
 21
282.43984799999993
 31
0.0
  0
LINE
  5
9BCE
  8
DANMEN
  6
CONTINUOUS
 10
214.78805199999999
 20
365.43984799999993
 30
0.0
 11
314.78805199999999
 21
365.43984799999993
 31
0.0
  0
LINE
  5
9BCF
  8
DANMEN
  6
CONTINUOUS
 10
249.78805199999991
 20
360.38984799999992
 30
0.0
 11
257.78805199999988
 21
360.38984799999992
 31
0.0
  0
LINE
  5
9BD0
  8
DANMEN
  6
CONTINUOUS
 10
264.28805199999988
 20
357.38984799999992
 30
0.0
 11
241.28805199999991
 21
357.38984799999992
 31
0.0
  0
LINE
  5
9BD1
  8
DANMEN
  6
CONTINUOUS
 10
214.78805199999999
 20
365.43984799999993
 30
0.0
 11
214.78805199999999
 21
277.93984799999993
 31
0.0
  0
LINE
  5
9BD2
  8
DANMEN
  6
CONTINUOUS
 10
214.78805199999999
 20
330.93984799999998
 30
0.0
 11
214.78805199999999
 21
364.93984799999993
 31
0.0
  0
LINE
  5
9BD3
  8
DANMEN
  6
CONTINUOUS
 10
216.43805199999991
 20
353.43984799999998
 30
0.0
 11
216.43805199999991
 21
330.93984799999998
 31
0.0
  0
LINE
  5
9BD4
  8
DANMEN
  6
CONTINUOUS
 10
232.53805199999991
 20
353.43984799999998
 30
0.0
 11
232.53805199999991
 21
332.50140099999987
 31
0.0
  0
LINE
  5
9BD5
  8
DANMEN
  6
CONTINUOUS
 10
235.03805199999991
 20
353.43984799999998
 30
0.0
 11
235.03805199999991
 21
332.50140099999987
 31
0.0
  0
LINE
  5
9BD6
  8
DANMEN
  6
CONTINUOUS
 10
216.4380459999999
 20
330.93984799999998
 30
0.0
 11
216.4380459999999
 21
277.93984799999993
 31
0.0
  0
ARC
  5
9BD9
  8
DANMEN
  6
CONTINUOUS
 10
215.938052
 20
330.93984799999998
 30
0.0
 40
0.5
 50
270.0
 51
0.0
  0
ARC
  5
9BDB
  8
DANMEN
  6
CONTINUOUS
 10
215.28805199999999
 20
330.93984799999998
 30
0.0
 40
0.5
 50
180.0
 51
270.0
  0
LINE
  5
9BDC
  8
DANMEN
  6
CONTINUOUS
 10
215.28805199999999
 20
330.43984799999993
 30
0.0
 11
215.9380459999999
 21
330.43984799999993
 31
0.0
  0
ARC
  5
9BDE
  8
DANMEN
  6
CONTINUOUS
 10
234.14766399999999
 20
330.93984799999998
 30
0.0
 40
0.5
 50
270.0
 51
345.96375699999987
  0
ARC
  5
9BE1
  8
DANMEN
  6
CONTINUOUS
 10
233.42843999999999
 20
330.93984799999998
 30
0.0
 40
0.5
 50
194.03624300000001
 51
270.0
  0
ARC
  5
9BE3
  8
DANMEN
  6
CONTINUOUS
 10
233.03805199999991
 20
332.50140099999987
 30
0.0
 40
0.5
 50
180.0
 51
194.03624300000001
  0
LINE
  5
9BE4
  8
DANMEN
  6
CONTINUOUS
 10
232.55298099999999
 20
332.380133
 30
0.0
 11
232.94336899999999
 21
330.81857999999988
 31
0.0
  0
LINE
  5
9BE5
  8
DANMEN
  6
CONTINUOUS
 10
233.42843999999999
 20
330.43984799999993
 30
0.0
 11
234.14766399999999
 21
330.43984799999993
 31
0.0
  0
ARC
  5
9BE7
  8
DANMEN
  6
CONTINUOUS
 10
234.53805199999991
 20
332.50140099999987
 30
0.0
 40
0.5
 50
345.96375699999987
 51
0.0
  0
LINE
  5
9BE8
  8
DANMEN
  6
CONTINUOUS
 10
234.63273599999999
 20
330.81857999999988
 30
0.0
 11
235.02312299999991
 21
332.380133
 31
0.0
  0
LINE
  5
9BE9
  8
DANMEN
  6
CONTINUOUS
 10
216.43805199999991
 20
363.78984800000001
 30
0.0
 11
229.78805199999999
 21
363.78984800000001
 31
0.0
  0
LINE
  5
9BEA
  8
DANMEN
  6
CONTINUOUS
 10
215.28805199999999
 20
365.43984799999993
 30
0.0
 11
235.28805199999991
 21
365.43984799999993
 31
0.0
  0
LINE
  5
9BEB
  8
DANMEN
  6
CONTINUOUS
 10
216.4380459999999
 20
355.08984800000002
 30
0.0
 11
229.78805199999999
 21
355.08984800000002
 31
0.0
  0
LINE
  5
9BEC
  8
DANMEN
  6
CONTINUOUS
 10
216.4380459999999
 20
353.43984799999998
 30
0.0
 11
232.53805199999991
 21
353.43984799999998
 31
0.0
  0
LINE
  5
9BED
  8
DANMEN
  6
CONTINUOUS
 10
216.43805199999991
 20
355.08984800000002
 30
0.0
 11
216.43805199999991
 21
363.78984800000001
 31
0.0
  0
ARC
  5
9BF2
  8
DANMEN
  6
CONTINUOUS
 10
215.28805199999999
 20
364.93984799999993
 30
0.0
 40
0.5
 50
90.0
 51
180.0
  0
LINE
  5
9BF4
  8
DANMEN
  6
CONTINUOUS
 10
235.78805199999999
 20
364.28984799999989
 30
0.0
 11
235.78805199999999
 21
364.93984799999993
 31
0.0
  0
LINE
  5
9BF5
  8
DANMEN
  6
CONTINUOUS
 10
231.43805199999991
 20
363.78984800000001
 30
0.0
 11
235.28805199999991
 21
363.78984800000001
 31
0.0
  0
ARC
  5
9BF6
  8
DANMEN
  6
CONTINUOUS
 10
233.48805200000001
 20
356.08984800000002
 30
0.0
 40
1.0
 50
270.0
 51
0.0
  0
ARC
  5
9BF7
  8
DANMEN
  6
CONTINUOUS
 10
236.48805200000001
 20
357.47015399999992
 30
0.0
 40
2.0
 50
128.29347699999991
 51
180.0
  0
LINE
  5
9BF8
  8
DANMEN
  6
CONTINUOUS
 10
231.43805199999991
 20
355.08984800000002
 30
0.0
 11
231.43805199999991
 21
363.78984800000001
 31
0.0
  0
LINE
  5
9BF9
  8
DANMEN
  6
CONTINUOUS
 10
229.78805199999999
 20
355.08984800000002
 30
0.0
 11
229.78805199999999
 21
363.78984800000001
 31
0.0
  0
LINE
  5
9BFC
  8
DANMEN
  6
CONTINUOUS
 10
231.43805199999991
 20
355.08984800000002
 30
0.0
 11
233.48805200000001
 21
355.08984800000002
 31
0.0
  0
LINE
  5
9BFE
  8
DANMEN
  6
CONTINUOUS
 10
234.48805200000001
 20
357.47015399999992
 30
0.0
 11
234.48805200000001
 21
356.08984800000002
 31
0.0
  0
LINE
  5
9C02
  8
DANMEN
  6
CONTINUOUS
 10
248.78805199999999
 20
359.03984800000001
 30
0.0
 11
239.18805199999991
 21
359.03984800000001
 31
0.0
  0
ARC
  5
9C03
  8
DANMEN
  6
CONTINUOUS
 10
242.28805199999999
 20
353.93984799999998
 30
0.0
 40
0.5
 50
270.0
 51
0.0
  0
LINE
  5
9C04
  8
DANMEN
  6
CONTINUOUS
 10
236.688052
 20
358.73984799999999
 30
0.0
 11
236.688052
 21
358.47677999999991
 31
0.0
  0
LINE
  5
9C05
  8
DANMEN
  6
CONTINUOUS
 10
238.88805199999999
 20
358.73984799999999
 30
0.0
 11
238.88805199999999
 21
358.47677999999991
 31
0.0
  0
ARC
  5
9C06
  8
DANMEN
  6
CONTINUOUS
 10
238.588052
 20
356.13984799999992
 30
0.0
 40
1.0
 50
270.0
 51
0.0
  0
LINE
  5
9C07
  8
DANMEN
  6
CONTINUOUS
 10
235.03805199999991
 20
353.43984799999998
 30
0.0
 11
242.28805199999999
 21
353.43984799999998
 31
0.0
  0
ARC
  5
9C08
  8
DANMEN
  6
CONTINUOUS
 10
236.98805200000001
 20
357.38590899999991
 30
0.0
 40
1.0
 50
114.6243179999999
 51
180.0
  0
ARC
  5
9C09
  8
DANMEN
  6
CONTINUOUS
 10
236.48805200000001
 20
358.47677999999991
 30
0.0
 40
0.2
 50
294.62431800000002
 51
0.0
  0
LINE
  5
9C0A
  8
DANMEN
  6
CONTINUOUS
 10
235.98805200000001
 20
357.38590899999991
 30
0.0
 11
235.98805200000001
 21
356.13984799999992
 31
0.0
  0
ARC
  5
9C0B
  8
DANMEN
  6
CONTINUOUS
 10
236.98805200000001
 20
356.13984799999992
 30
0.0
 40
1.0
 50
180.0
 51
270.0
  0
LINE
  5
9C0C
  8
DANMEN
  6
CONTINUOUS
 10
238.588052
 20
355.13984799999992
 30
0.0
 11
236.98805200000001
 21
355.13984799999992
 31
0.0
  0
ARC
  5
9C10
  8
DANMEN
  6
CONTINUOUS
 10
239.088052
 20
358.47677999999991
 30
0.0
 40
0.2
 50
180.0
 51
245.3756819999999
  0
ARC
  5
9C11
  8
DANMEN
  6
CONTINUOUS
 10
238.588052
 20
357.38590899999991
 30
0.0
 40
1.0
 50
0.0
 51
65.375681999999983
  0
LINE
  5
9C12
  8
DANMEN
  6
CONTINUOUS
 10
239.58805199999989
 20
357.38590899999991
 30
0.0
 11
239.58805199999989
 21
356.13984799999992
 31
0.0
  0
LINE
  5
9C17
  8
DANMEN
  6
CONTINUOUS
 10
241.28805199999991
 20
354.23984799999999
 30
0.0
 11
242.78805199999991
 21
354.23984799999999
 31
0.0
  0
LINE
  5
9C18
  8
DANMEN
  6
CONTINUOUS
 10
242.78805199999991
 20
354.23984799999999
 30
0.0
 11
242.78805199999991
 21
353.93984799999998
 31
0.0
  0
LINE
  5
9C19
  8
DANMEN
  6
CONTINUOUS
 10
241.28805199999991
 20
357.38984799999992
 30
0.0
 11
241.28805199999991
 21
354.23984799999999
 31
0.0
  0
ARC
  5
9C1B
  8
DANMEN
  6
CONTINUOUS
 10
235.28805199999991
 20
364.28984799999989
 30
0.0
 40
0.5
 50
270.0
 51
0.0
  0
LINE
  5
9C1C
  8
DANMEN
  6
CONTINUOUS
 10
236.38805199999999
 20
359.03984800000001
 30
0.0
 11
235.24867299999991
 21
359.03984800000001
 31
0.0
  0
ARC
  5
9C1D
  8
DANMEN
  6
CONTINUOUS
 10
236.38805199999999
 20
358.73984799999999
 30
0.0
 40
0.3
 50
0.0
 51
90.0
  0
ARC
  5
9C1E
  8
DANMEN
  6
CONTINUOUS
 10
239.18805199999991
 20
358.73984799999999
 30
0.0
 40
0.3
 50
90.0
 51
180.0
  0
LINE
  5
9C1F
  8
DANMEN
  6
CONTINUOUS
 10
249.78805199999991
 20
360.03984799999989
 30
0.0
 11
249.78805199999991
 21
360.38984799999992
 31
0.0
  0
ARC
  5
9C22
  8
DANMEN
  6
CONTINUOUS
 10
248.78805199999999
 20
360.03984799999989
 30
0.0
 40
1.0
 50
270.0
 51
0.0
  0
ARC
  5
9C24
  8
DANMEN
  6
CONTINUOUS
 10
235.28805199999991
 20
364.93984799999993
 30
0.0
 40
0.5
 50
0.0
 51
90.0
  0
LINE
  5
9C25
  8
DANMEN
  6
CONTINUOUS
 10
310.28805199999988
 20
350.93985099999998
 30
0.0
 11
310.28805199999988
 21
335.43985400000003
 31
0.0
  0
LINE
  5
9C26
  8
DANMEN
  6
CONTINUOUS
 10
314.78805199999999
 20
365.43984799999993
 30
0.0
 11
314.78805199999999
 21
313.95675
 31
0.0
  0
LINE
  5
9C27
  8
DANMEN
  6
CONTINUOUS
 10
313.13805200000002
 20
356.43984799999993
 30
0.0
 11
313.13805200000002
 21
332.08984800000002
 31
0.0
  0
LINE
  5
9C28
  8
DANMEN
  6
CONTINUOUS
 10
314.78805199999999
 20
364.93984799999993
 30
0.0
 11
314.78805199999999
 21
330.93984799999998
 31
0.0
  0
LINE
  5
9C29
  8
DANMEN
  6
CONTINUOUS
 10
269.78805199999999
 20
353.43984799999998
 30
0.0
 11
269.78805199999999
 21
338.43984799999993
 31
0.0
  0
LINE
  5
9C2A
  8
DANMEN
  6
CONTINUOUS
 10
271.43805200000003
 20
356.43984799999993
 30
0.0
 11
271.43805200000003
 21
335.43984799999993
 31
0.0
  0
LINE
  5
9C2B
  8
DANMEN
  6
CONTINUOUS
 10
317.93805600000002
 20
256.43984699999999
 30
0.0
 11
315.38805600000001
 21
256.43984699999999
 31
0.0
  0
LINE
  5
9C2C
  8
DANMEN
  6
CONTINUOUS
 10
317.93805600000002
 20
257.43984699999999
 30
0.0
 11
315.38805600000001
 21
257.43984699999999
 31
0.0
  0
LINE
  5
9C2D
  8
DANMEN
  6
CONTINUOUS
 10
319.08805599999999
 20
270.43984699999999
 30
0.0
 11
315.38805600000001
 21
270.43984699999999
 31
0.0
  0
LINE
  5
9C2E
  8
DANMEN
  6
CONTINUOUS
 10
317.93805600000002
 20
266.43984699999999
 30
0.0
 11
315.88804199999998
 21
266.43984699999999
 31
0.0
  0
LINE
  5
9C2F
  8
DANMEN
  6
CONTINUOUS
 10
313.78805299999988
 20
254.93984699999999
 30
0.0
 11
324.28805299999988
 21
254.93984699999999
 31
0.0
  0
LINE
  5
9C30
  8
DANMEN
  6
CONTINUOUS
 10
310.28804999999988
 20
314.93984899999998
 30
0.0
 11
321.78805
 21
307.93984899999998
 31
0.0
  0
LINE
  5
9C31
  8
DANMEN
  6
CONTINUOUS
 10
312.54027400000001
 20
315.32496200000003
 30
0.0
 11
322.10799700000001
 21
309.50113099999987
 31
0.0
  0
LINE
  5
9C32
  8
DANMEN
  6
CONTINUOUS
 10
317.93805200000003
 20
296.43984799999993
 30
0.0
 11
315.38805200000002
 21
296.43984799999993
 31
0.0
  0
LINE
  5
9C33
  8
DANMEN
  6
CONTINUOUS
 10
317.93805200000003
 20
295.43984799999998
 30
0.0
 11
315.38805200000002
 21
295.43984799999998
 31
0.0
  0
LINE
  5
9C34
  8
DANMEN
  6
CONTINUOUS
 10
307.93607999999989
 20
314.43984799999993
 30
0.0
 11
317.93805200000003
 21
308.35168999999991
 31
0.0
  0
LINE
  5
9C35
  8
DANMEN
  6
CONTINUOUS
 10
310.28805199999988
 20
314.93984799999993
 30
0.0
 11
321.548023
 21
308.08595099999991
 31
0.0
  0
LINE
  5
9C36
  8
DANMEN
  6
CONTINUOUS
 10
315.88803699999988
 20
286.43984799999993
 30
0.0
 11
317.93805200000003
 21
286.43984799999993
 31
0.0
  0
LINE
  5
9C37
  8
DANMEN
  6
CONTINUOUS
 10
319.088052
 20
282.43984799999993
 30
0.0
 11
315.38805200000002
 21
282.43984799999993
 31
0.0
  0
LINE
  5
9C38
  8
DANMEN
  6
CONTINUOUS
 10
269.78803499999998
 20
282.93984799999998
 30
0.0
 11
269.78803499999998
 21
305.93984799999998
 31
0.0
  0
LINE
  5
9C39
  8
DANMEN
  6
CONTINUOUS
 10
271.73803399999991
 20
284.38984799999992
 30
0.0
 11
271.73803399999991
 21
295.43984799999998
 31
0.0
  0
LINE
  5
9C3A
  8
DANMEN
  6
CONTINUOUS
 10
271.73803399999991
 20
268.48984399999989
 30
0.0
 11
271.73803399999991
 21
257.43984399999988
 31
0.0
  0
LINE
  5
9C3B
  8
DANMEN
  6
CONTINUOUS
 10
271.73803399999991
 20
257.43984399999988
 30
0.0
 11
276.388034
 21
257.43984399999988
 31
0.0
  0
LINE
  5
9C3C
  8
DANMEN
  6
CONTINUOUS
 10
271.73803399999991
 20
256.43984399999999
 30
0.0
 11
276.388034
 21
256.43984399999999
 31
0.0
  0
LINE
  5
9C3D
  8
DANMEN
  6
CONTINUOUS
 10
271.73803399999991
 20
256.43984399999999
 30
0.0
 11
271.73803399999991
 21
248.73984400000001
 31
0.0
  0
ARC
  5
9C41
  8
DANMEN
  6
CONTINUOUS
 10
276.388034
 20
256.93984399999999
 30
0.0
 40
0.5
 50
270.0
 51
90.0
  0
LINE
  5
9C44
  8
DANMEN
  6
CONTINUOUS
 10
270.28803499999998
 20
270.43984399999988
 30
0.0
 11
276.388034
 21
270.43984399999988
 31
0.0
  0
LINE
  5
9C45
  8
DANMEN
  6
CONTINUOUS
 10
271.73803399999991
 20
268.48984399999989
 30
0.0
 11
275.6880339999999
 21
268.48984399999989
 31
0.0
  0
ARC
  5
9C46
  8
DANMEN
  6
CONTINUOUS
 10
276.1880339999999
 20
263.93984399999988
 30
0.0
 40
0.5
 50
180.0
 51
270.0
  0
ARC
  5
9C47
  8
DANMEN
  6
CONTINUOUS
 10
270.28803499999998
 20
269.93984399999988
 30
0.0
 40
0.5
 50
90.0
 51
180.0
  0
LINE
  5
9C4A
  8
DANMEN
  6
CONTINUOUS
 10
276.88803399999989
 20
269.93984399999988
 30
0.0
 11
276.88803399999989
 21
263.43984399999999
 31
0.0
  0
LINE
  5
9C4B
  8
DANMEN
  6
CONTINUOUS
 10
275.6880339999999
 20
268.48984399999989
 30
0.0
 11
275.6880339999999
 21
263.93984399999988
 31
0.0
  0
LINE
  5
9C4C
  8
DANMEN
  6
CONTINUOUS
 10
276.1880339999999
 20
263.43984399999999
 30
0.0
 11
276.88803399999989
 21
263.43984399999999
 31
0.0
  0
ARC
  5
9C4F
  8
DANMEN
  6
CONTINUOUS
 10
276.388034
 20
269.93984399999988
 30
0.0
 40
0.5
 50
0.0
 51
90.0
  0
LINE
  5
9C53
  8
DANMEN
  6
CONTINUOUS
 10
276.88803399999989
 20
282.93984799999998
 30
0.0
 11
276.88803399999989
 21
289.43984799999993
 31
0.0
  0
LINE
  5
9C54
  8
DANMEN
  6
CONTINUOUS
 10
270.28803499999998
 20
282.43984799999993
 30
0.0
 11
276.388034
 21
282.43984799999993
 31
0.0
  0
ARC
  5
9C57
  8
DANMEN
  6
CONTINUOUS
 10
270.28803499999998
 20
282.93984799999998
 30
0.0
 40
0.5
 50
180.0
 51
270.0
  0
ARC
  5
9C59
  8
DANMEN
  6
CONTINUOUS
 10
276.388034
 20
282.93984799999998
 30
0.0
 40
0.5
 50
270.0
 51
0.0
  0
LINE
  5
9C5C
  8
DANMEN
  6
CONTINUOUS
 10
271.73803399999991
 20
284.38984799999992
 30
0.0
 11
275.6880339999999
 21
284.38984799999992
 31
0.0
  0
ARC
  5
9C5D
  8
DANMEN
  6
CONTINUOUS
 10
276.1880339999999
 20
288.93984799999998
 30
0.0
 40
0.5
 50
90.0
 51
180.0
  0
LINE
  5
9C5F
  8
DANMEN
  6
CONTINUOUS
 10
275.6880339999999
 20
284.38984799999992
 30
0.0
 11
275.6880339999999
 21
288.93984799999998
 31
0.0
  0
LINE
  5
9C61
  8
DANMEN
  6
CONTINUOUS
 10
276.1880339999999
 20
289.43984799999993
 30
0.0
 11
276.88803399999989
 21
289.43984799999993
 31
0.0
  0
ARC
  5
9C64
  8
DANMEN
  6
CONTINUOUS
 10
313.78805299999988
 20
252.93984699999999
 30
0.0
 40
2.0
 50
89.999981999999974
 51
180.0000189999999
  0
ARC
  5
9C68
  8
DANMEN
  6
CONTINUOUS
 10
315.38805600000001
 20
256.93984699999999
 30
0.0
 40
0.5
 50
90.0
 51
270.0
  0
LINE
  5
9C69
  8
DANMEN
  6
CONTINUOUS
 10
314.88805600000001
 20
269.93984699999999
 30
0.0
 11
314.88805600000001
 21
263.43984699999999
 31
0.0
  0
LINE
  5
9C6A
  8
DANMEN
  6
CONTINUOUS
 10
315.88804199999998
 20
266.43984699999999
 30
0.0
 11
315.88804199999998
 21
263.93984699999999
 31
0.0
  0
LINE
  5
9C6C
  8
DANMEN
  6
CONTINUOUS
 10
315.38804199999998
 20
263.43984699999999
 30
0.0
 11
314.88805600000001
 21
263.43984699999999
 31
0.0
  0
ARC
  5
9C6D
  8
DANMEN
  6
CONTINUOUS
 10
315.38804199999998
 20
263.93984699999999
 30
0.0
 40
0.5
 50
270.0
 51
0.0
  0
ARC
  5
9C70
  8
DANMEN
  6
CONTINUOUS
 10
315.38805600000001
 20
269.93984699999999
 30
0.0
 40
0.5
 50
90.000018999999995
 51
180.00003699999999
  0
LINE
  5
9C72
  8
DANMEN
  6
CONTINUOUS
 10
314.8880529999999
 20
282.93984799999998
 30
0.0
 11
314.8880529999999
 21
289.43984799999993
 31
0.0
  0
ARC
  5
9C74
  8
DANMEN
  6
CONTINUOUS
 10
315.38805200000002
 20
282.93984799999998
 30
0.0
 40
0.5
 50
179.99996299999989
 51
269.99998099999999
  0
LINE
  5
9C75
  8
DANMEN
  6
CONTINUOUS
 10
315.88803699999988
 20
286.43984799999993
 30
0.0
 11
315.88803699999988
 21
288.93984799999998
 31
0.0
  0
LINE
  5
9C78
  8
DANMEN
  6
CONTINUOUS
 10
315.38803699999988
 20
289.43984799999993
 30
0.0
 11
314.8880529999999
 21
289.43984799999993
 31
0.0
  0
ARC
  5
9C79
  8
DANMEN
  6
CONTINUOUS
 10
315.38803699999988
 20
288.93984799999998
 30
0.0
 40
0.5
 50
0.0
 51
90.0
  0
LINE
  5
9C7B
  8
DANMEN
  6
CONTINUOUS
 10
297.48805299999992
 20
316.08984800000002
 30
0.0
 11
280.93805499999991
 21
316.08984800000002
 31
0.0
  0
LINE
  5
9C7C
  8
DANMEN
  6
CONTINUOUS
 10
307.93607999999989
 20
314.43984799999993
 30
0.0
 11
280.58805499999988
 21
314.43984799999993
 31
0.0
  0
LINE
  5
9C7D
  8
DANMEN
  6
DASHED
 10
270.28805199999988
 20
329.43984799999993
 30
0.0
 11
312.23805299999998
 21
329.43984799999993
 31
0.0
  0
LINE
  5
9C7E
  8
DANMEN
  6
DASHED
 10
273.63805200000002
 20
330.43984799999993
 30
0.0
 11
308.88805200000002
 21
330.43984799999993
 31
0.0
  0
LINE
  5
9C7F
  8
DANMEN
  6
CONTINUOUS
 10
269.78805199999999
 20
329.93985099999992
 30
0.0
 11
269.78805199999999
 21
306.93984799999993
 31
0.0
  0
LINE
  5
9C80
  8
DANMEN
  6
CONTINUOUS
 10
271.43805200000003
 20
317.08984800000002
 30
0.0
 11
271.43805200000003
 21
328.789851
 31
0.0
  0
ARC
  5
9C81
  8
DANMEN
  6
CONTINUOUS
 10
270.28803499999998
 20
305.93984799999998
 30
0.0
 40
0.5
 50
90.0
 51
180.0
  0
LINE
  5
9C82
  8
DANMEN
  6
CONTINUOUS
 10
272.78803399999998
 20
306.13984799999992
 30
0.0
 11
272.78803399999998
 21
307.93984799999998
 31
0.0
  0
LINE
  5
9C83
  8
DANMEN
  6
CONTINUOUS
 10
271.73803399999991
 20
306.13984799999992
 30
0.0
 11
271.73803399999991
 21
306.43984799999993
 31
0.0
  0
LINE
  5
9C84
  8
DANMEN
  6
CONTINUOUS
 10
274.08803399999988
 20
305.63984799999992
 30
0.0
 11
274.08803399999988
 21
308.42101200000002
 31
0.0
  0
LINE
  5
9C85
  8
DANMEN
  6
CONTINUOUS
 10
271.73803399999991
 20
295.43984799999998
 30
0.0
 11
276.388034
 21
295.43984799999998
 31
0.0
  0
LINE
  5
9C86
  8
DANMEN
  6
CONTINUOUS
 10
271.73803399999991
 20
296.43984799999993
 30
0.0
 11
276.388034
 21
296.43984799999993
 31
0.0
  0
LINE
  5
9C87
  8
DANMEN
  6
CONTINUOUS
 10
271.73803399999991
 20
296.43984799999993
 30
0.0
 11
271.73803399999991
 21
304.13984799999992
 31
0.0
  0
LINE
  5
9C8A
  8
DANMEN
  6
CONTINUOUS
 10
271.73803399999991
 20
306.13984799999992
 30
0.0
 11
272.78803399999998
 21
306.13984799999992
 31
0.0
  0
LINE
  5
9C8D
  8
DANMEN
  6
CONTINUOUS
 10
272.23803399999991
 20
304.63984799999992
 30
0.0
 11
273.08803399999999
 21
304.63984799999992
 31
0.0
  0
ARC
  5
9C8E
  8
DANMEN
  6
CONTINUOUS
 10
273.08803399999999
 20
305.63984799999992
 30
0.0
 40
1.0
 50
270.0
 51
0.0
  0
ARC
  5
9C90
  8
DANMEN
  6
CONTINUOUS
 10
272.23803399999991
 20
304.13984799999992
 30
0.0
 40
0.5
 50
90.0
 51
180.0
  0
ARC
  5
9C94
  8
DANMEN
  6
CONTINUOUS
 10
276.388034
 20
295.93984799999993
 30
0.0
 40
0.5
 50
270.0
 51
90.0
  0
LINE
  5
9C97
  8
DANMEN
  6
CONTINUOUS
 10
279.28805499999999
 20
315.43984799999993
 30
0.0
 11
271.43804899999998
 21
315.43984799999993
 31
0.0
  0
LINE
  5
9C98
  8
DANMEN
  6
CONTINUOUS
 10
279.93805499999991
 20
317.08984800000002
 30
0.0
 11
271.43805200000003
 21
317.08984800000002
 31
0.0
  0
LINE
  5
9C99
  8
DANMEN
  6
CONTINUOUS
 10
271.98803399999991
 20
308.63984799999992
 30
0.0
 11
278.53551099999987
 21
312.73984799999999
 31
0.0
  0
LINE
  5
9C9A
  8
DANMEN
  6
CONTINUOUS
 10
274.08803399999988
 20
308.42101200000002
 30
0.0
 11
279.15339899999998
 21
311.59291999999999
 31
0.0
  0
LINE
  5
9C9B
  8
DANMEN
  6
CONTINUOUS
 10
271.43804899999998
 20
307.93984799999998
 30
0.0
 11
271.43804899999998
 21
315.43984799999993
 31
0.0
  0
LINE
  5
9C9C
  8
DANMEN
  6
CONTINUOUS
 10
271.9790319999999
 20
306.43984799999993
 30
0.0
 11
270.28805199999988
 21
306.43984799999993
 31
0.0
  0
LINE
  5
9C9D
  8
DANMEN
  6
CONTINUOUS
 10
271.43804899999998
 20
307.93984799999998
 30
0.0
 11
272.48804899999999
 21
307.93984799999998
 31
0.0
  0
LINE
  5
9C9E
  8
DANMEN
  6
CONTINUOUS
 10
270.28803499999998
 20
306.43984799999993
 30
0.0
 11
271.73803399999991
 21
306.43984799999993
 31
0.0
  0
ARC
  5
9CA0
  8
DANMEN
  6
CONTINUOUS
 10
270.28805199999988
 20
306.93984799999993
 30
0.0
 40
0.5
 50
180.0
 51
270.0
  0
LINE
  5
9CA5
  8
DANMEN
  6
CONTINUOUS
 10
272.78804899999989
 20
307.63984799999992
 30
0.0
 11
272.78804899999989
 21
307.43984799999993
 31
0.0
  0
ARC
  5
9CA6
  8
DANMEN
  6
CONTINUOUS
 10
272.48804899999999
 20
307.63984799999992
 30
0.0
 40
0.3
 50
0.0
 51
90.0
  0
LINE
  5
9CAA
  8
DANMEN
  6
CONTINUOUS
 10
272.78804899999989
 20
307.43984799999993
 30
0.0
 11
272.42624599999988
 21
306.71624100000002
 31
0.0
  0
ARC
  5
9CAB
  8
DANMEN
  6
CONTINUOUS
 10
271.9790319999999
 20
306.93984799999993
 30
0.0
 40
0.5
 50
270.0
 51
333.43494900000002
  0
LINE
  5
9CAD
  8
DANMEN
  6
CONTINUOUS
 10
271.98803399999991
 20
308.13984799999992
 30
0.0
 11
272.78803399999998
 21
307.93984799999998
 31
0.0
  0
LINE
  5
9CAE
  8
DANMEN
  6
CONTINUOUS
 10
271.98803399999991
 20
308.13984799999992
 30
0.0
 11
271.98803399999991
 21
308.63984799999992
 31
0.0
  0
LINE
  5
9CB6
  8
DANMEN
  6
CONTINUOUS
 10
279.28805499999999
 20
310.43984799999993
 30
0.0
 11
279.28805499999999
 21
315.43984799999993
 31
0.0
  0
LINE
  5
9CB7
  8
DANMEN
  6
CONTINUOUS
 10
280.58805499999988
 20
314.43984799999993
 30
0.0
 11
280.58805499999988
 21
308.43984799999993
 31
0.0
  0
LINE
  5
9CB8
  8
DANMEN
  6
CONTINUOUS
 10
279.388034
 20
312.01669099999998
 30
0.0
 11
279.388034
 21
312.23984799999999
 31
0.0
  0
ARC
  5
9CB9
  8
DANMEN
  6
CONTINUOUS
 10
280.09795699999989
 20
308.93984799999993
 30
0.0
 40
0.5
 50
191.309932
 51
270.0
  0
LINE
  5
9CBB
  8
DANMEN
  6
CONTINUOUS
 10
279.28805499999999
 20
310.43984799999993
 30
0.0
 11
279.60766699999999
 21
308.84179
 31
0.0
  0
ARC
  5
9CBD
  8
DANMEN
  6
CONTINUOUS
 10
278.88803399999989
 20
312.01669099999998
 30
0.0
 40
0.5
 50
302.05461000000003
 51
0.0
  0
LINE
  5
9CBF
  8
DANMEN
  6
CONTINUOUS
 10
280.09795699999989
 20
308.43984799999993
 30
0.0
 11
280.58805499999988
 21
308.43984799999993
 31
0.0
  0
LINE
  5
9CC2
  8
DANMEN
  6
CONTINUOUS
 10
278.53551099999987
 20
312.73984799999999
 30
0.0
 11
278.88803399999989
 21
312.73984799999999
 31
0.0
  0
ARC
  5
9CC3
  8
DANMEN
  6
CONTINUOUS
 10
278.88803399999989
 20
312.23984799999999
 30
0.0
 40
0.5
 50
0.0
 51
90.0
  0
ARC
  5
9CC8
  8
DANMEN
  6
CONTINUOUS
 10
279.93805499999991
 20
316.08984800000002
 30
0.0
 40
1.0
 50
0.0
 51
90.0
  0
LINE
  5
9CCA
  8
DANMEN
  6
CONTINUOUS
 10
263.58805499999988
 20
337.63984799999992
 30
0.0
 11
269.78805199999999
 21
337.63984799999992
 31
0.0
  0
LINE
  5
9CCB
  8
DANMEN
  6
CONTINUOUS
 10
263.58805499999988
 20
331.43984799999993
 30
0.0
 11
269.78805199999999
 21
331.43984799999993
 31
0.0
  0
LINE
  5
9CCC
  8
DANMEN
  6
CONTINUOUS
 10
263.28805199999999
 20
338.43984799999993
 30
0.0
 11
269.78805199999999
 21
338.43984799999993
 31
0.0
  0
LINE
  5
9CCD
  8
DANMEN
  6
CONTINUOUS
 10
263.28805199999999
 20
330.43984799999993
 30
0.0
 11
271.63805200000002
 21
330.43984799999993
 31
0.0
  0
LINE
  5
9CCE
  8
DANMEN
  6
CONTINUOUS
 10
261.98804899999999
 20
337.83984700000002
 30
0.0
 11
261.98804899999999
 21
330.73984699999988
 31
0.0
  0
LINE
  5
9CCF
  8
DANMEN
  6
CONTINUOUS
 10
264.78804899999989
 20
335.93984699999999
 30
0.0
 11
263.98804899999999
 21
335.13984699999997
 31
0.0
  0
LINE
  5
9CD0
  8
DANMEN
  6
CONTINUOUS
 10
260.93422700000002
 20
338.32428799999991
 30
0.0
 11
259.80674900000002
 21
334.82999699999999
 31
0.0
  0
LINE
  5
9CD1
  8
DANMEN
  6
CONTINUOUS
 10
261.37048399999998
 20
337.83984700000002
 30
0.0
 11
260.38804900000002
 21
334.65697299999999
 31
0.0
  0
LINE
  5
9CD2
  8
DANMEN
  6
CONTINUOUS
 10
263.28805199999999
 20
332.63984499999998
 30
0.0
 11
263.58805499999988
 21
332.63984499999998
 31
0.0
  0
LINE
  5
9CD3
  8
DANMEN
  6
CONTINUOUS
 10
262.78804899999989
 20
332.63984699999997
 30
0.0
 11
263.788049
 21
332.63984699999997
 31
0.0
  0
LINE
  5
9CD6
  8
DANMEN
  6
CONTINUOUS
 10
262.78805199999999
 20
330.93984799999998
 30
0.0
 11
262.78805199999999
 21
332.13984499999998
 31
0.0
  0
ARC
  5
9CD7
  8
DANMEN
  6
CONTINUOUS
 10
263.28805199999999
 20
332.13984499999998
 30
0.0
 40
0.5
 50
89.999999000000003
 51
179.99998099999999
  0
ARC
  5
9CD8
  8
DANMEN
  6
CONTINUOUS
 10
263.28805199999999
 20
330.93984799999998
 30
0.0
 40
0.5
 50
179.99998099999999
 51
270.0000179999999
  0
LINE
  5
9CDB
  8
DANMEN
  6
CONTINUOUS
 10
262.78804899999989
 20
332.63984699999997
 30
0.0
 11
262.78804899999989
 21
330.13984699999997
 31
0.0
  0
LINE
  5
9CDD
  8
DANMEN
  6
CONTINUOUS
 10
261.11552699999987
 20
330.13984699999997
 30
0.0
 11
262.78804899999989
 21
330.13984699999997
 31
0.0
  0
LINE
  5
9CE1
  8
DANMEN
  6
CONTINUOUS
 10
259.788049
 20
334.74555600000002
 30
0.0
 11
259.788049
 21
333.834138
 31
0.0
  0
LINE
  5
9CE2
  8
DANMEN
  6
CONTINUOUS
 10
259.80674900000002
 20
333.74969700000003
 30
0.0
 11
260.93422700000002
 21
330.25540599999988
 31
0.0
  0
ARC
  5
9CE3
  8
DANMEN
  6
CONTINUOUS
 10
261.11552699999987
 20
330.33984700000002
 30
0.0
 40
0.2
 50
204.97390999999999
 51
270.0
  0
ARC
  5
9CE5
  8
DANMEN
  6
CONTINUOUS
 10
259.98804899999999
 20
334.74555600000002
 30
0.0
 40
0.2
 50
155.0260899999999
 51
180.0
  0
ARC
  5
9CE7
  8
DANMEN
  6
CONTINUOUS
 10
259.98804899999999
 20
333.834138
 30
0.0
 40
0.2
 50
180.0
 51
204.97390999999999
  0
LINE
  5
9CE9
  8
DANMEN
  6
CONTINUOUS
 10
260.38804900000002
 20
334.65697299999999
 30
0.0
 11
260.38804900000002
 21
333.92272000000003
 31
0.0
  0
LINE
  5
9CEA
  8
DANMEN
  6
CONTINUOUS
 10
260.38804900000002
 20
333.92272000000003
 30
0.0
 11
261.37048399999998
 21
330.73984699999988
 31
0.0
  0
LINE
  5
9CEB
  8
DANMEN
  6
CONTINUOUS
 10
261.37048399999998
 20
330.73984699999988
 30
0.0
 11
261.98804899999999
 21
330.73984699999988
 31
0.0
  0
LINE
  5
9CF1
  8
DANMEN
  6
CONTINUOUS
 10
263.58805499999988
 20
331.43984799999993
 30
0.0
 11
263.58805499999988
 21
332.63984499999998
 31
0.0
  0
LINE
  5
9CF3
  8
DANMEN
  6
CONTINUOUS
 10
263.98804899999999
 20
331.43984699999999
 30
0.0
 11
264.58804900000001
 21
331.43984699999999
 31
0.0
  0
ARC
  5
9CF5
  8
DANMEN
  6
CONTINUOUS
 10
264.58804900000001
 20
331.63984699999997
 30
0.0
 40
0.2
 50
270.0000179999999
 51
0.0
  0
ARC
  5
9CF7
  8
DANMEN
  6
CONTINUOUS
 10
263.98804899999999
 20
331.63984699999997
 30
0.0
 40
0.2
 50
180.0000189999999
 51
270.000001
  0
LINE
  5
9CF9
  8
DANMEN
  6
CONTINUOUS
 10
264.78804899999989
 20
332.63984699999997
 30
0.0
 11
264.78804899999989
 21
331.63984699999997
 31
0.0
  0
LINE
  5
9CFB
  8
DANMEN
  6
CONTINUOUS
 10
263.98804899999999
 20
333.43984699999999
 30
0.0
 11
264.78804899999989
 21
332.63984699999997
 31
0.0
  0
LINE
  5
9CFC
  8
DANMEN
  6
CONTINUOUS
 10
263.788049
 20
332.63984699999997
 30
0.0
 11
263.788049
 21
331.63984699999997
 31
0.0
  0
LINE
  5
9CFF
  8
DANMEN
  6
CONTINUOUS
 10
263.98804899999999
 20
335.13984699999997
 30
0.0
 11
263.98804899999999
 21
333.43984699999999
 31
0.0
  0
LINE
  5
9D02
  8
DANMEN
  6
CONTINUOUS
 10
263.28805199999999
 20
336.23985099999987
 30
0.0
 11
263.58805499999988
 21
336.23985099999987
 31
0.0
  0
LINE
  5
9D03
  8
DANMEN
  6
CONTINUOUS
 10
262.78804899999989
 20
335.93984699999999
 30
0.0
 11
263.788049
 21
335.93984699999999
 31
0.0
  0
LINE
  5
9D04
  8
DANMEN
  6
CONTINUOUS
 10
262.78805199999999
 20
336.73985099999999
 30
0.0
 11
262.78805199999999
 21
337.93984799999993
 31
0.0
  0
ARC
  5
9D05
  8
DANMEN
  6
CONTINUOUS
 10
263.28805199999999
 20
337.93984799999993
 30
0.0
 40
0.5
 50
89.999999000000003
 51
179.99998099999999
  0
ARC
  5
9D06
  8
DANMEN
  6
CONTINUOUS
 10
263.28805199999999
 20
336.73985099999999
 30
0.0
 40
0.5
 50
179.99998099999999
 51
270.0000179999999
  0
LINE
  5
9D09
  8
DANMEN
  6
CONTINUOUS
 10
261.11552699999987
 20
338.43984699999999
 30
0.0
 11
262.78804899999989
 21
338.43984699999999
 31
0.0
  0
LINE
  5
9D0A
  8
DANMEN
  6
CONTINUOUS
 10
262.78804899999989
 20
338.43984699999999
 30
0.0
 11
262.78804899999989
 21
335.93984699999999
 31
0.0
  0
ARC
  5
9D0D
  8
DANMEN
  6
CONTINUOUS
 10
261.11552699999987
 20
338.239847
 30
0.0
 40
0.2
 50
90.0
 51
155.0260899999999
  0
LINE
  5
9D0F
  8
DANMEN
  6
CONTINUOUS
 10
261.37048399999998
 20
337.83984700000002
 30
0.0
 11
261.98804899999999
 21
337.83984700000002
 31
0.0
  0
LINE
  5
9D12
  8
DANMEN
  6
CONTINUOUS
 10
263.58805499999988
 20
336.23985099999987
 30
0.0
 11
263.58805499999988
 21
337.63984799999992
 31
0.0
  0
LINE
  5
9D14
  8
DANMEN
  6
CONTINUOUS
 10
264.78804899999989
 20
336.93984699999999
 30
0.0
 11
264.78804899999989
 21
335.93984699999999
 31
0.0
  0
LINE
  5
9D15
  8
DANMEN
  6
CONTINUOUS
 10
263.98804899999999
 20
337.13984699999997
 30
0.0
 11
264.58804900000001
 21
337.13984699999997
 31
0.0
  0
LINE
  5
9D16
  8
DANMEN
  6
CONTINUOUS
 10
263.788049
 20
336.93984699999999
 30
0.0
 11
263.788049
 21
335.93984699999999
 31
0.0
  0
ARC
  5
9D18
  8
DANMEN
  6
CONTINUOUS
 10
264.58804900000001
 20
336.93984699999999
 30
0.0
 40
0.2
 50
0.0
 51
89.999981999999974
  0
ARC
  5
9D1A
  8
DANMEN
  6
CONTINUOUS
 10
263.98804899999999
 20
336.93984699999999
 30
0.0
 40
0.2
 50
89.999981999999974
 51
180.0000189999999
  0
ARC
  5
9D1D
  8
DANMEN
  6
CONTINUOUS
 10
272.13805200000002
 20
330.28985099999989
 30
0.0
 40
1.5
 50
270.0
 51
0.0
  0
ARC
  5
9D1E
  8
DANMEN
  6
DASHED
 10
270.28805199999988
 20
329.93984799999993
 30
0.0
 40
0.5
 50
180.0
 51
270.0
  0
LINE
  5
9D1F
  8
DANMEN
  6
CONTINUOUS
 10
271.43805200000003
 20
328.789851
 30
0.0
 11
272.13805200000002
 21
328.789851
 31
0.0
  0
LINE
  5
9D23
  8
DANMEN
  6
CONTINUOUS
 10
269.78805199999999
 20
337.63984799999992
 30
0.0
 11
269.78805199999999
 21
331.43984799999993
 31
0.0
  0
LINE
  5
9D24
  8
DANMEN
  6
CONTINUOUS
 10
272.13805200000002
 20
335.43984799999993
 30
0.0
 11
272.13805200000002
 21
330.93984799999998
 31
0.0
  0
ARC
  5
9D25
  8
DANMEN
  6
CONTINUOUS
 10
272.63805200000002
 20
334.93985099999992
 30
0.0
 40
0.5
 50
90.0
 51
180.0
  0
ARC
  5
9D26
  8
DANMEN
  6
CONTINUOUS
 10
273.13805200000002
 20
334.93985099999992
 30
0.0
 40
0.5
 50
0.0
 51
90.0
  0
LINE
  5
9D27
  8
DANMEN
  6
DASHED
 10
272.13804299999998
 20
335.04074900000001
 30
0.0
 11
271.55166600000001
 21
335.505674
 31
0.0
  0
LINE
  5
9D28
  8
DANMEN
  6
DASHED
 10
273.13805200000002
 20
330.93984799999998
 30
0.0
 11
273.13805200000002
 21
336.84077999999988
 31
0.0
  0
LINE
  5
9D29
  8
DANMEN
  6
CONTINUOUS
 10
270.28805199999988
 20
330.43985099999992
 30
0.0
 11
272.13805200000002
 21
330.43985099999992
 31
0.0
  0
LINE
  5
9D2A
  8
DANMEN
  6
DASHED
 10
270.28805199999988
 20
330.43984799999993
 30
0.0
 11
272.13805200000002
 21
330.43984799999993
 31
0.0
  0
ARC
  5
9D2F
  8
DANMEN
  6
CONTINUOUS
 10
270.28805199999988
 20
329.93985099999992
 30
0.0
 40
0.5
 50
90.0
 51
180.0
  0
ARC
  5
9D31
  8
DANMEN
  6
DASHED
 10
270.28805199999988
 20
329.93984799999993
 30
0.0
 40
0.5
 50
90.0
 51
180.0
  0
ARC
  5
9D33
  8
DANMEN
  6
CONTINUOUS
 10
271.63805200000002
 20
330.93984799999998
 30
0.0
 40
0.5
 50
270.0
 51
0.0
  0
LINE
  5
9D34
  8
DANMEN
  6
CONTINUOUS
 10
273.63805200000002
 20
330.28985099999989
 30
0.0
 11
273.63805200000002
 21
334.93985099999992
 31
0.0
  0
LINE
  5
9D36
  8
DANMEN
  6
CONTINUOUS
 10
272.13805200000002
 20
330.43985099999992
 30
0.0
 11
272.13805200000002
 21
334.93985099999992
 31
0.0
  0
LINE
  5
9D38
  8
DANMEN
  6
DASHED
 10
272.13805200000002
 20
330.43984799999993
 30
0.0
 11
272.13805200000002
 21
335.04074199999991
 31
0.0
  0
ARC
  5
9D3B
  8
DANMEN
  6
DASHED
 10
273.63805200000002
 20
330.93984799999998
 30
0.0
 40
0.5
 50
180.0
 51
270.0
  0
LINE
  5
9D3C
  8
DANMEN
  6
CONTINUOUS
 10
271.43805200000003
 20
335.43984799999993
 30
0.0
 11
272.13805200000002
 21
335.43984799999993
 31
0.0
  0
ARC
  5
9D3D
  8
DANMEN
  6
DASHED
 10
271.73805099999993
 20
335.74074899999999
 30
0.0
 40
0.3
 50
154.13384600000001
 51
231.58991399999999
  0
LINE
  5
9D3E
  8
DANMEN
  6
DASHED
 10
273.068107
 20
339.17166099999992
 30
0.0
 11
271.46810799999997
 21
335.87162999999993
 31
0.0
  0
LINE
  5
9D46
  8
DANMEN
  6
CONTINUOUS
 10
272.63805200000002
 20
335.43985099999992
 30
0.0
 11
273.13805200000002
 21
335.43985099999992
 31
0.0
  0
ARC
  5
9D48
  8
DANMEN
  6
DASHED
 10
273.338052
 20
339.04077999999993
 30
0.0
 40
0.3
 50
347.00047899999993
 51
154.13384600000001
  0
LINE
  5
9D49
  8
DANMEN
  6
DASHED
 10
273.13805200000002
 20
336.84077999999988
 30
0.0
 11
273.63036399999999
 21
338.973297
 31
0.0
  0
LINE
  5
9D4D
  8
DANMEN
  6
CONTINUOUS
 10
313.138058
 20
326.705825
 30
0.0
 11
313.138058
 21
314.961094
 31
0.0
  0
LINE
  5
9D4E
  8
DANMEN
  6
CONTINUOUS
 10
311.63367099999999
 20
325.52070400000002
 30
0.0
 11
312.30140299999999
 21
315.71808099999993
 31
0.0
  0
LINE
  5
9D4F
  8
DANMEN
  6
CONTINUOUS
 10
310.28804999999988
 20
326.713683
 30
0.0
 11
310.28804999999988
 21
314.93984899999998
 31
0.0
  0
LINE
  5
9D50
  8
DANMEN
  6
CONTINUOUS
 10
310.58805000000001
 20
330.21526299999999
 30
0.0
 11
310.58805000000001
 21
314.75723999999991
 31
0.0
  0
LINE
  5
9D51
  8
DANMEN
  6
CONTINUOUS
 10
305.088052
 20
318.47015399999992
 30
0.0
 11
305.088052
 21
317.08984800000002
 31
0.0
  0
LINE
  5
9D52
  8
DANMEN
  6
CONTINUOUS
 10
308.6380529999999
 20
316.08984800000002
 30
0.0
 11
308.6380529999999
 21
325.58984800000002
 31
0.0
  0
LINE
  5
9D53
  8
DANMEN
  6
CONTINUOUS
 10
310.28805199999988
 20
314.93984799999993
 30
0.0
 11
310.28805199999988
 21
325.58984800000002
 31
0.0
  0
LINE
  5
9D54
  8
DANMEN
  6
CONTINUOUS
 10
299.98805299999998
 20
318.38590899999991
 30
0.0
 11
299.98805299999998
 21
317.13984799999992
 31
0.0
  0
LINE
  5
9D55
  8
DANMEN
  6
CONTINUOUS
 10
303.588052
 20
318.38590899999991
 30
0.0
 11
303.588052
 21
317.13984799999992
 31
0.0
  0
LINE
  5
9D56
  8
DANMEN
  6
CONTINUOUS
 10
298.48805199999993
 20
318.47015399999992
 30
0.0
 11
298.48805199999993
 21
317.08984800000002
 31
0.0
  0
ARC
  5
9D57
  8
DANMEN
  6
CONTINUOUS
 10
300.98805299999992
 20
317.13984799999992
 30
0.0
 40
1.0
 50
180.0
 51
270.0
  0
ARC
  5
9D58
  8
DANMEN
  6
CONTINUOUS
 10
297.48805299999992
 20
317.08984800000002
 30
0.0
 40
1.0
 50
270.0
 51
0.0
  0
ARC
  5
9D5C
  8
DANMEN
  6
CONTINUOUS
 10
315.38805200000002
 20
295.93984799999993
 30
0.0
 40
0.5
 50
90.0
 51
270.0
  0
LINE
  5
9D5D
  8
DANMEN
  6
CONTINUOUS
 10
308.6380529999999
 20
316.08984800000002
 30
0.0
 11
306.08805199999989
 21
316.08984800000002
 31
0.0
  0
ARC
  5
9D5E
  8
DANMEN
  6
CONTINUOUS
 10
302.588052
 20
317.13984799999992
 30
0.0
 40
1.0
 50
270.0
 51
0.0
  0
LINE
  5
9D5F
  8
DANMEN
  6
CONTINUOUS
 10
302.588052
 20
316.13984799999992
 30
0.0
 11
300.98805299999992
 21
316.13984799999992
 31
0.0
  0
ARC
  5
9D61
  8
DANMEN
  6
CONTINUOUS
 10
306.08805199999989
 20
317.08984800000002
 30
0.0
 40
1.0
 50
180.0
 51
270.0
  0
ARC
  5
9D63
  8
DANMEN
  6
CONTINUOUS
 10
312.80024700000001
 20
315.75206099999991
 30
0.0
 40
0.5
 50
183.89683999999991
 51
238.6713069999999
  0
ARC
  5
9D69
  8
DANMEN
  6
CONTINUOUS
 10
300.98805299999992
 20
318.38590899999991
 30
0.0
 40
1.0
 50
114.6243179999999
 51
180.0
  0
LINE
  5
9D6A
  8
DANMEN
  6
CONTINUOUS
 10
300.38805200000002
 20
320.03985399999999
 30
0.0
 11
299.24867999999998
 21
320.03985399999999
 31
0.0
  0
ARC
  5
9D6D
  8
DANMEN
  6
CONTINUOUS
 10
300.48805199999993
 20
318.47015399999992
 30
0.0
 40
2.0
 50
128.29347699999991
 51
180.0
  0
LINE
  5
9D6F
  8
DANMEN
  6
CONTINUOUS
 10
313.18804999999992
 20
329.72631599999988
 30
0.0
 11
313.18804999999992
 21
327.02101199999993
 31
0.0
  0
LINE
  5
9D70
  8
DANMEN
  6
CONTINUOUS
 10
310.28804999999988
 20
330.213683
 30
0.0
 11
310.28804999999988
 21
329.01368300000001
 31
0.0
  0
LINE
  5
9D71
  8
DANMEN
  6
CONTINUOUS
 10
313.18804899999998
 20
327.08984800000002
 30
0.0
 11
313.18804899999998
 21
330.43984799999993
 31
0.0
  0
LINE
  5
9D72
  8
DANMEN
  6
CONTINUOUS
 10
306.53804899999989
 20
327.08984800000002
 30
0.0
 11
306.53804899999989
 21
331.18984799999993
 31
0.0
  0
LINE
  5
9D73
  8
DANMEN
  6
CONTINUOUS
 10
308.18804899999998
 20
327.23984799999999
 30
0.0
 11
308.18804899999998
 21
331.03984799999989
 31
0.0
  0
LINE
  5
9D74
  8
DANMEN
  6
CONTINUOUS
 10
311.86005299999999
 20
328.02615099999991
 30
0.0
 11
312.30204700000002
 21
330.04669699999988
 31
0.0
  0
ARC
  5
9D75
  8
DANMEN
  6
DASHED
 10
312.23805299999998
 20
329.93984799999993
 30
0.0
 40
0.5
 50
270.0
 51
0.0
  0
CIRCLE
  5
9D76
  8
DANMEN
  6
CONTINUOUS
 10
309.93804899999998
 20
329.13984799999992
 30
0.0
 40
2.0
  0
LINE
  5
9D77
  8
DANMEN
  6
CONTINUOUS
 10
308.038049
 20
325.58984800000002
 30
0.0
 11
308.6380529999999
 21
325.58984800000002
 31
0.0
  0
LINE
  5
9D78
  8
DANMEN
  6
CONTINUOUS
 10
308.18804899999998
 20
327.23984799999999
 30
0.0
 11
310.88315299999988
 21
327.23984799999999
 31
0.0
  0
CIRCLE
  5
9D79
  8
DANMEN
  6
CONTINUOUS
 10
308.40195699999992
 20
329.27716600000002
 30
0.0
 40
0.1
  0
LINE
  5
9D7A
  8
DANMEN
  6
CONTINUOUS
 10
303.18805200000003
 20
320.03985399999999
 30
0.0
 11
304.32742400000001
 21
320.03985399999999
 31
0.0
  0
LINE
  5
9D7B
  8
DANMEN
  6
CONTINUOUS
 10
300.68805200000003
 20
319.73984799999988
 30
0.0
 11
300.68805200000003
 21
319.47677999999991
 31
0.0
  0
ARC
  5
9D7C
  8
DANMEN
  6
CONTINUOUS
 10
300.48805199999993
 20
319.47677999999991
 30
0.0
 40
0.2
 50
294.62431800000002
 51
0.0
  0
ARC
  5
9D7D
  8
DANMEN
  6
CONTINUOUS
 10
303.088052
 20
319.47677999999991
 30
0.0
 40
0.2
 50
180.0
 51
245.3756819999999
  0
ARC
  5
9D7E
  8
DANMEN
  6
CONTINUOUS
 10
302.588052
 20
318.38590899999991
 30
0.0
 40
1.0
 50
0.0
 51
65.375681999999983
  0
LINE
  5
9D7F
  8
DANMEN
  6
CONTINUOUS
 10
302.88805200000002
 20
319.73984799999988
 30
0.0
 11
302.88805200000002
 21
319.47677999999991
 31
0.0
  0
ARC
  5
9D80
  8
DANMEN
  6
CONTINUOUS
 10
300.38805200000002
 20
319.73984799999988
 30
0.0
 40
0.3
 50
0.0
 51
90.0
  0
ARC
  5
9D81
  8
DANMEN
  6
CONTINUOUS
 10
303.18805200000003
 20
319.73984799999988
 30
0.0
 40
0.3
 50
90.0
 51
180.0
  0
ARC
  5
9D85
  8
DANMEN
  6
CONTINUOUS
 10
303.088052
 20
318.47015399999992
 30
0.0
 40
2.0
 50
0.0
 51
51.706522999999997
  0
ARC
  5
9D87
  8
DANMEN
  6
CONTINUOUS
 10
308.038049
 20
327.08984800000002
 30
0.0
 40
1.5
 50
180.0
 51
270.0
  0
ARC
  5
9D89
  8
DANMEN
  6
CONTINUOUS
 10
311.68804999999992
 20
327.02101199999993
 30
0.0
 40
1.5
 50
270.30174899999997
 51
0.0
  0
ARC
  5
9D8A
  8
DANMEN
  6
CONTINUOUS
 10
311.68804899999998
 20
327.08984800000002
 30
0.0
 40
1.5
 50
270.0
 51
0.0
  0
LINE
  5
9D8B
  8
DANMEN
  6
CONTINUOUS
 10
310.28804999999988
 20
326.71363400000001
 30
0.0
 11
310.58805000000001
 21
326.715214
 31
0.0
  0
LINE
  5
9D8C
  8
DANMEN
  6
CONTINUOUS
 10
310.29437000000001
 20
329.01369899999997
 30
0.0
 11
310.58805000000001
 21
329.01524599999988
 31
0.0
  0
LINE
  5
9D8E
  8
DANMEN
  6
CONTINUOUS
 10
311.63367099999999
 20
325.52070400000002
 30
0.0
 11
311.69594999999998
 21
325.52103199999988
 31
0.0
  0
ARC
  5
9D8F
  8
DANMEN
  6
CONTINUOUS
 10
310.88315299999988
 20
328.23984799999988
 30
0.0
 40
1.0
 50
270.0
 51
347.66091199999988
  0
LINE
  5
9D91
  8
DANMEN
  6
CONTINUOUS
 10
310.28805199999988
 20
325.58984800000002
 30
0.0
 11
311.68804899999998
 21
325.58984800000002
 31
0.0
  0
CIRCLE
  5
9D95
  8
DANMEN
  6
CONTINUOUS
 10
311.31138199999992
 20
329.4144839999999
 30
0.0
 40
0.1
  0
CIRCLE
  5
9D96
  8
DANMEN
  6
CONTINUOUS
 10
309.16578799999991
 20
328.77080599999988
 30
0.0
 40
0.1
  0
CIRCLE
  5
9D97
  8
DANMEN
  6
CONTINUOUS
 10
310.47030999999998
 20
328.74505899999991
 30
0.0
 40
0.1
  0
CIRCLE
  5
9D98
  8
DANMEN
  6
CONTINUOUS
 10
311.38004100000001
 20
328.31594000000001
 30
0.0
 40
0.1
  0
CIRCLE
  5
9D99
  8
DANMEN
  6
CONTINUOUS
 10
309.83521400000001
 20
328.08421600000003
 30
0.0
 40
0.1
  0
CIRCLE
  5
9D9A
  8
DANMEN
  6
CONTINUOUS
 10
308.61651599999999
 20
328.08421600000003
 30
0.0
 40
0.1
  0
CIRCLE
  5
9D9B
  8
DANMEN
  6
CONTINUOUS
 10
309.46617199999997
 20
327.52636100000001
 30
0.0
 40
0.1
  0
CIRCLE
  5
9D9C
  8
DANMEN
  6
CONTINUOUS
 10
310.71919800000001
 20
327.67226199999999
 30
0.0
 40
0.1
  0
CIRCLE
  5
9D9D
  8
DANMEN
  6
CONTINUOUS
 10
310.16134399999987
 20
329.36298999999991
 30
0.0
 40
0.1
  0
LINE
  5
9DA1
  8
DANMEN
  6
CONTINUOUS
 10
308.038049
 20
332.68984799999998
 30
0.0
 11
308.78804899999989
 21
332.68984799999998
 31
0.0
  0
LINE
  5
9DA2
  8
DANMEN
  6
CONTINUOUS
 10
308.18804899999998
 20
331.03984799999989
 30
0.0
 11
309.288049
 21
331.03984799999989
 31
0.0
  0
ARC
  5
9DA4
  8
DANMEN
  6
CONTINUOUS
 10
308.038049
 20
331.18984799999993
 30
0.0
 40
1.5
 50
90.0
 51
180.0
  0
ARC
  5
9DA6
  8
DANMEN
  6
CONTINUOUS
 10
310.88805200000002
 20
334.93984799999998
 30
0.0
 40
0.5
 50
0.0
 51
90.0
  0
ARC
  5
9DA7
  8
DANMEN
  6
CONTINUOUS
 10
310.88805200000002
 20
334.93984799999998
 30
0.0
 40
0.5
 50
90.0
 51
180.0
  0
ARC
  5
9DA8
  8
DANMEN
  6
CONTINUOUS
 10
309.788049
 20
334.93985400000003
 30
0.0
 40
0.5
 50
0.0
 51
90.0
  0
ARC
  5
9DA9
  8
DANMEN
  6
CONTINUOUS
 10
309.288049
 20
334.93985400000003
 30
0.0
 40
0.5
 50
90.0
 51
180.0
  0
LINE
  5
9DAA
  8
DANMEN
  6
DASHED
 10
310.38806099999999
 20
335.04074900000001
 30
0.0
 11
310.97443799999991
 21
335.505674
 31
0.0
  0
LINE
  5
9DAB
  8
DANMEN
  6
DASHED
 10
309.38805200000002
 20
330.93984799999998
 30
0.0
 11
309.38805200000002
 21
336.84077999999988
 31
0.0
  0
LINE
  5
9DAC
  8
DANMEN
  6
CONTINUOUS
 10
310.88805200000002
 20
330.43984799999993
 30
0.0
 11
314.28805199999988
 21
330.43984799999993
 31
0.0
  0
LINE
  5
9DAD
  8
DANMEN
  6
CONTINUOUS
 10
311.38805200000002
 20
332.08984800000002
 30
0.0
 11
313.13805200000002
 21
332.08984800000002
 31
0.0
  0
LINE
  5
9DAE
  8
DANMEN
  6
CONTINUOUS
 10
310.28804999999988
 20
330.213683
 30
0.0
 11
312.68541800000003
 21
330.2263089999999
 31
0.0
  0
ARC
  5
9DAF
  8
DANMEN
  6
CONTINUOUS
 10
312.79049700000002
 20
329.93984799999993
 30
0.0
 40
0.5
 50
90.0
 51
167.660912
  0
ARC
  5
9DB0
  8
DANMEN
  6
DASHED
 10
312.23805299999998
 20
329.93984799999993
 30
0.0
 40
0.5
 50
0.0
 51
90.0
  0
LINE
  5
9DB1
  8
DANMEN
  6
CONTINUOUS
 10
311.38805200000002
 20
334.93984799999998
 30
0.0
 11
311.38805200000002
 21
332.08984800000002
 31
0.0
  0
ARC
  5
9DB3
  8
DANMEN
  6
CONTINUOUS
 10
310.88805200000002
 20
330.93984799999998
 30
0.0
 40
0.5
 50
180.0
 51
270.0
  0
LINE
  5
9DB4
  8
DANMEN
  6
CONTINUOUS
 10
310.38805200000002
 20
334.93984799999998
 30
0.0
 11
310.38805200000002
 21
330.93984799999998
 31
0.0
  0
ARC
  5
9DBA
  8
DANMEN
  6
CONTINUOUS
 10
309.288049
 20
332.03984800000001
 30
0.0
 40
1.0
 50
270.0
 51
0.0
  0
LINE
  5
9DBB
  8
DANMEN
  6
CONTINUOUS
 10
308.78804899999989
 20
332.68984799999998
 30
0.0
 11
308.78804899999989
 21
334.93985400000003
 31
0.0
  0
LINE
  5
9DBC
  8
DANMEN
  6
CONTINUOUS
 10
310.28804899999989
 20
332.03984800000001
 30
0.0
 11
310.28804899999989
 21
334.93985400000003
 31
0.0
  0
LINE
  5
9DBF
  8
DANMEN
  6
DASHED
 10
310.38805200000002
 20
330.43984799999993
 30
0.0
 11
310.38805200000002
 21
335.04074199999991
 31
0.0
  0
LINE
  5
9DC2
  8
DANMEN
  6
DASHED
 10
312.23805299999998
 20
330.43984799999993
 30
0.0
 11
310.38805200000002
 21
330.43984799999993
 31
0.0
  0
ARC
  5
9DC3
  8
DANMEN
  6
DASHED
 10
308.88805200000002
 20
330.93984799999998
 30
0.0
 40
0.5
 50
270.0
 51
0.0
  0
CIRCLE
  5
9DC4
  8
DANMEN
  6
CONTINUOUS
 10
310.71061600000002
 20
330.30705099999989
 30
0.0
 40
0.1
  0
CIRCLE
  5
9DC5
  8
DANMEN
  6
CONTINUOUS
 10
310.71061600000002
 20
330.30705099999989
 30
0.0
 40
0.1
  0
CIRCLE
  5
9DC6
  8
DANMEN
  6
CONTINUOUS
 10
310.71061600000002
 20
330.30705099999989
 30
0.0
 40
0.1
  0
CIRCLE
  5
9DC7
  8
DANMEN
  6
CONTINUOUS
 10
309.52624800000001
 20
329.96375599999988
 30
0.0
 40
0.1
  0
CIRCLE
  5
9DC8
  8
DANMEN
  6
CONTINUOUS
 10
308.74525299999999
 20
330.30705099999989
 30
0.0
 40
0.1
  0
CIRCLE
  5
9DC9
  8
DANMEN
  6
CONTINUOUS
 10
309.91245499999991
 20
330.73617000000002
 30
0.0
 40
0.1
  0
ARC
  5
9DCB
  8
DANMEN
  6
CONTINUOUS
 10
314.28805199999988
 20
330.93984799999998
 30
0.0
 40
0.5
 50
270.0
 51
0.0
  0
ARC
  5
9DCF
  8
DANMEN
  6
CONTINUOUS
 10
312.68804999999992
 20
329.72631599999988
 30
0.0
 40
0.5
 50
0.0
 51
90.301749000000001
  0
LINE
  5
9DD3
  8
DANMEN
  6
CONTINUOUS
 10
313.18804899999998
 20
330.43984799999993
 30
0.0
 11
312.79049800000001
 21
330.43984799999993
 31
0.0
  0
LINE
  5
9DD9
  8
DANMEN
  6
CONTINUOUS
 10
309.788049
 20
335.43985400000003
 30
0.0
 11
309.288049
 21
335.43985400000003
 31
0.0
  0
LINE
  5
9DDB
  8
DANMEN
  6
DASHED
 10
309.45799699999998
 20
339.17166099999992
 30
0.0
 11
311.05799699999989
 21
335.87162999999993
 31
0.0
  0
LINE
  5
9DDF
  8
DANMEN
  6
DASHED
 10
309.38805200000002
 20
336.84077999999988
 30
0.0
 11
308.89573999999988
 21
338.973297
 31
0.0
  0
ARC
  5
9DE0
  8
DANMEN
  6
DASHED
 10
309.18805200000003
 20
339.04077999999993
 30
0.0
 40
0.3
 50
25.866154000000002
 51
192.9995209999999
  0
ARC
  5
9DE1
  8
DANMEN
  6
DASHED
 10
310.78805299999999
 20
335.74074899999999
 30
0.0
 40
0.3
 50
308.41008599999992
 51
25.866154000000002
  0
LINE
  5
9DE4
  8
DANMEN
  6
CONTINUOUS
 10
321.788049
 20
306.43984799999993
 30
0.0
 11
321.788049
 21
277.93984799999993
 31
0.0
  0
LINE
  5
9DE5
  8
DANMEN
  6
CONTINUOUS
 10
319.588052
 20
282.93984799999998
 30
0.0
 11
319.588052
 21
306.43984799999993
 31
0.0
  0
LINE
  5
9DE6
  8
DANMEN
  6
CONTINUOUS
 10
317.93805200000003
 20
286.43984799999993
 30
0.0
 11
317.93805200000003
 21
295.43984799999998
 31
0.0
  0
LINE
  5
9DE7
  8
DANMEN
  6
CONTINUOUS
 10
321.788049
 20
274.93984799999993
 30
0.0
 11
321.788049
 21
251.43984699999999
 31
0.0
  0
LINE
  5
9DE8
  8
DANMEN
  6
CONTINUOUS
 10
317.93805600000002
 20
266.43984699999999
 30
0.0
 11
317.93805600000002
 21
257.43984699999999
 31
0.0
  0
LINE
  5
9DE9
  8
DANMEN
  6
CONTINUOUS
 10
319.58805599999988
 20
269.93984699999999
 30
0.0
 11
319.58805599999988
 21
251.43984699999999
 31
0.0
  0
ARC
  5
9DEA
  8
DANMEN
  6
CONTINUOUS
 10
324.28805299999988
 20
254.43984699999999
 30
0.0
 40
0.5
 50
0.0
 51
89.999981999999974
  0
LINE
  5
9DEB
  8
DANMEN
  6
CONTINUOUS
 10
317.93805600000002
 20
256.43984699999999
 30
0.0
 11
317.93805600000002
 21
249.52800400000001
 31
0.0
  0
LINE
  5
9DEC
  8
DANMEN
  6
CONTINUOUS
 10
324.78805299999988
 20
254.43984699999999
 30
0.0
 11
324.78805299999988
 21
250.43984699999999
 31
0.0
  0
LINE
  5
9DED
  8
DANMEN
  6
CONTINUOUS
 10
319.58805599999988
 20
251.43984699999999
 30
0.0
 11
321.78805299999988
 21
251.43984699999999
 31
0.0
  0
ARC
  5
9DF1
  8
DANMEN
  6
CONTINUOUS
 10
321.28805299999999
 20
250.22084100000001
 30
0.0
 40
0.5
 50
301.32869299999999
 51
0.0
  0
LINE
  5
9DF2
  8
DANMEN
  6
CONTINUOUS
 10
321.78805299999988
 20
251.43984699999999
 30
0.0
 11
321.78805299999988
 21
250.22084100000001
 31
0.0
  0
LINE
  5
9DF5
  8
DANMEN
  6
CONTINUOUS
 10
321.78805299999988
 20
248.43984699999999
 30
0.0
 11
322.78805299999999
 21
248.43984699999999
 31
0.0
  0
ARC
  5
9DFC
  8
DANMEN
  6
CONTINUOUS
 10
319.08805599999999
 20
269.93984699999999
 30
0.0
 40
0.5
 50
0.0
 51
89.999981999999974
  0
ARC
  5
9E00
  8
DANMEN
  6
CONTINUOUS
 10
319.088052
 20
282.93984799999998
 30
0.0
 40
0.5
 50
270.0000179999999
 51
0.0
  0
LINE
  5
9E03
  8
DANMEN
  6
CONTINUOUS
 10
370.00694700000003
 20
288.05515200000002
 30
0.0
 11
381.70694700000001
 21
288.05515200000002
 31
0.0
  0
LINE
  5
9E04
  8
DANMEN
  6
CONTINUOUS
 10
368.35694699999999
 20
289.20515199999988
 30
0.0
 11
368.35694699999999
 21
284.205152
 31
0.0
  0
ARC
  5
9E05
  8
DANMEN
  6
CONTINUOUS
 10
369.50694700000003
 20
284.205152
 30
0.0
 40
0.5
 50
270.0
 51
0.0
  0
ARC
  5
9E07
  8
DANMEN
  6
CONTINUOUS
 10
368.85694699999999
 20
284.205152
 30
0.0
 40
0.5
 50
180.0
 51
270.0
  0
LINE
  5
9E08
  8
DANMEN
  6
CONTINUOUS
 10
368.85694699999999
 20
283.705152
 30
0.0
 11
369.50694700000003
 21
283.705152
 31
0.0
  0
LINE
  5
9E0B
  8
DANMEN
  6
CONTINUOUS
 10
370.00694700000003
 20
288.05515200000002
 30
0.0
 11
370.00694700000003
 21
284.205152
 31
0.0
  0
ARC
  5
9E0D
  8
DANMEN
  6
CONTINUOUS
 10
368.85694699999999
 20
289.20515199999988
 30
0.0
 40
0.5
 50
90.0
 51
180.0
  0
LINE
  5
9E0F
  8
DANMEN
  6
CONTINUOUS
 10
317.93805200000003
 20
296.43984799999993
 30
0.0
 11
317.93805200000003
 21
308.35168999999991
 31
0.0
  0
LINE
  5
9E12
  8
DANMEN
  6
CONTINUOUS
 10
319.588052
 20
306.43984799999993
 30
0.0
 11
321.788049
 21
306.43984799999993
 31
0.0
  0
LINE
  5
9E17
  8
DANMEN
  6
CONTINUOUS
 10
322.58805000000001
 20
307.18984899999998
 30
0.0
 11
322.58805000000001
 21
308.64693199999988
 31
0.0
  0
ARC
  5
9E1A
  8
DANMEN
  6
CONTINUOUS
 10
321.58805000000001
 20
308.64693199999988
 30
0.0
 40
1.0
 50
0.0
 51
58.671306999999992
  0
LINE
  5
9E1C
  8
DANMEN
  6
CONTINUOUS
 10
321.78805
 20
307.93984899999998
 30
0.0
 11
322.08805000000001
 21
307.93984899999998
 31
0.0
  0
LINE
  5
9E1D
  8
DANMEN
  6
CONTINUOUS
 10
322.08805000000001
 20
307.18984899999998
 30
0.0
 11
322.08805000000001
 21
307.93984899999998
 31
0.0
  0
ARC
  5
9E1E
  8
DANMEN
  6
CONTINUOUS
 10
322.33805000000001
 20
307.18984899999998
 30
0.0
 40
0.25
 50
180.0
 51
0.0
  0
ARC
  5
9E22
  8
DANMEN
  6
CONTINUOUS
 10
321.28804899999989
 20
307.65885200000002
 30
0.0
 40
0.5
 50
0.0
 51
58.671301
  0
LINE
  5
9E24
  8
DANMEN
  6
CONTINUOUS
 10
321.788049
 20
306.43984799999993
 30
0.0
 11
321.788049
 21
307.65885200000002
 31
0.0
  0
ARC
  5
9E26
  8
DANMEN
  6
CONTINUOUS
 10
321.28804899999989
 20
307.65885200000002
 30
0.0
 40
0.5
 50
0.0
 51
58.671301
  0
LINE
  5
9E28
  8
DANMEN
  6
CONTINUOUS
 10
321.788049
 20
306.43984799999993
 30
0.0
 11
321.788049
 21
307.65885200000002
 31
0.0
  0
LINE
  5
9E29
  8
DANMEN
  6
CONTINUOUS
 10
271.43805200000003
 20
350.93985099999998
 30
0.0
 11
310.28805199999988
 21
350.93985099999998
 31
0.0
  0
LINE
  5
9E2A
  8
DANMEN
  6
CONTINUOUS
 10
271.61324300000001
 20
358.08984800000002
 30
0.0
 11
298.13805200000002
 21
358.08984800000002
 31
0.0
  0
LINE
  5
9E2B
  8
DANMEN
  6
CONTINUOUS
 10
271.43805200000003
 20
356.43984799999993
 30
0.0
 11
313.13805200000002
 21
356.43984799999993
 31
0.0
  0
LINE
  5
9E2C
  8
DANMEN
  6
CONTINUOUS
 10
268.58805199999989
 20
355.13984799999992
 30
0.0
 11
266.98805199999993
 21
355.13984799999992
 31
0.0
  0
LINE
  5
9E2D
  8
DANMEN
  6
CONTINUOUS
 10
263.28805199999999
 20
353.43984799999998
 30
0.0
 11
269.78805199999999
 21
353.43984799999998
 31
0.0
  0
LINE
  5
9E2E
  8
DANMEN
  6
CONTINUOUS
 10
266.38805200000002
 20
359.03984800000001
 30
0.0
 11
258.78805199999999
 21
359.03984800000001
 31
0.0
  0
LINE
  5
9E30
  8
DANMEN
  6
CONTINUOUS
 10
257.78805199999988
 20
360.03984799999989
 30
0.0
 11
257.78805199999988
 21
360.38984799999992
 31
0.0
  0
ARC
  5
9E33
  8
DANMEN
  6
CONTINUOUS
 10
258.78805199999999
 20
360.03984799999989
 30
0.0
 40
1.0
 50
180.0
 51
270.0
  0
LINE
  5
9E34
  8
DANMEN
  6
CONTINUOUS
 10
266.68805200000003
 20
358.73984799999999
 30
0.0
 11
266.68805200000003
 21
358.47677999999991
 31
0.0
  0
LINE
  5
9E35
  8
DANMEN
  6
CONTINUOUS
 10
262.78805199999999
 20
354.23984799999999
 30
0.0
 11
264.28805199999988
 21
354.23984799999999
 31
0.0
  0
ARC
  5
9E38
  8
DANMEN
  6
CONTINUOUS
 10
263.28805199999999
 20
353.93984799999998
 30
0.0
 40
0.5
 50
180.0
 51
270.0
  0
LINE
  5
9E39
  8
DANMEN
  6
CONTINUOUS
 10
262.78805199999999
 20
354.23984799999999
 30
0.0
 11
262.78805199999999
 21
353.93984799999998
 31
0.0
  0
ARC
  5
9E3A
  8
DANMEN
  6
CONTINUOUS
 10
266.98805199999993
 20
357.38590899999991
 30
0.0
 40
1.0
 50
114.6243179999999
 51
180.0
  0
ARC
  5
9E3B
  8
DANMEN
  6
CONTINUOUS
 10
266.48805199999998
 20
358.47677999999991
 30
0.0
 40
0.2
 50
294.62431800000002
 51
0.0
  0
LINE
  5
9E3C
  8
DANMEN
  6
CONTINUOUS
 10
265.98805199999993
 20
357.38590899999991
 30
0.0
 11
265.98805199999993
 21
356.13984799999992
 31
0.0
  0
ARC
  5
9E3D
  8
DANMEN
  6
CONTINUOUS
 10
266.98805199999993
 20
356.13984799999992
 30
0.0
 40
1.0
 50
180.0
 51
270.0
  0
LINE
  5
9E41
  8
DANMEN
  6
CONTINUOUS
 10
264.28805199999988
 20
357.38984799999992
 30
0.0
 11
264.28805199999988
 21
354.23984799999999
 31
0.0
  0
ARC
  5
9E42
  8
DANMEN
  6
CONTINUOUS
 10
266.38805200000002
 20
358.73984799999999
 30
0.0
 40
0.3
 50
0.0
 51
90.0
  0
LINE
  5
9E43
  8
DANMEN
  6
CONTINUOUS
 10
268.88805200000002
 20
358.73984799999999
 30
0.0
 11
268.88805200000002
 21
358.47677999999991
 31
0.0
  0
ARC
  5
9E44
  8
DANMEN
  6
CONTINUOUS
 10
271.61324300000001
 20
359.08984800000002
 30
0.0
 40
1.0
 50
212.676692
 51
270.0
  0
ARC
  5
9E45
  8
DANMEN
  6
CONTINUOUS
 10
269.08805199999989
 20
358.47677999999991
 30
0.0
 40
0.2
 50
180.0
 51
245.3756819999999
  0
ARC
  5
9E46
  8
DANMEN
  6
CONTINUOUS
 10
268.58805199999989
 20
357.38590899999991
 30
0.0
 40
1.0
 50
0.0
 51
65.375681999999983
  0
ARC
  5
9E47
  8
DANMEN
  6
CONTINUOUS
 10
268.58805199999989
 20
356.13984799999992
 30
0.0
 40
1.0
 50
270.0
 51
0.0
  0
LINE
  5
9E48
  8
DANMEN
  6
CONTINUOUS
 10
269.588052
 20
357.38590899999991
 30
0.0
 11
269.588052
 21
356.13984799999992
 31
0.0
  0
ARC
  5
9E4B
  8
DANMEN
  6
CONTINUOUS
 10
269.08805199999989
 20
357.47015399999992
 30
0.0
 40
2.0
 50
32.676691999999989
 51
51.706522999999997
  0
LINE
  5
9E4C
  8
DANMEN
  6
CONTINUOUS
 10
270.32743099999988
 20
359.03984800000001
 30
0.0
 11
269.18805200000003
 21
359.03984800000001
 31
0.0
  0
ARC
  5
9E4D
  8
DANMEN
  6
CONTINUOUS
 10
269.18805200000003
 20
358.73984799999999
 30
0.0
 40
0.3
 50
90.0
 51
180.0
  0
LINE
  5
9E4E
  8
DANMEN
  6
CONTINUOUS
 10
293.78805199999988
 20
364.28984799999989
 30
0.0
 11
293.78805199999988
 21
364.93984799999993
 31
0.0
  0
LINE
  5
9E4F
  8
DANMEN
  6
CONTINUOUS
 10
299.78805199999988
 20
362.03984799999989
 30
0.0
 11
299.78805199999988
 21
364.93984799999993
 31
0.0
  0
LINE
  5
9E50
  8
DANMEN
  6
CONTINUOUS
 10
308.78805199999999
 20
364.93984799999993
 30
0.0
 11
308.78805199999999
 21
364.28985399999999
 31
0.0
  0
LINE
  5
9E51
  8
DANMEN
  6
CONTINUOUS
 10
299.78805199999988
 20
362.03984799999989
 30
0.0
 11
300.38805200000002
 21
362.03984799999989
 31
0.0
  0
ARC
  5
9E52
  8
DANMEN
  6
CONTINUOUS
 10
300.98805299999992
 20
359.13984799999992
 30
0.0
 40
1.0
 50
180.0
 51
270.0
  0
ARC
  5
9E53
  8
DANMEN
  6
CONTINUOUS
 10
300.98805299999992
 20
360.38590899999991
 30
0.0
 40
1.0
 50
114.6243179999999
 51
180.0
  0
LINE
  5
9E54
  8
DANMEN
  6
CONTINUOUS
 10
298.13805200000002
 20
358.08984800000002
 30
0.0
 11
298.13805200000002
 21
363.78984800000001
 31
0.0
  0
LINE
  5
9E57
  8
DANMEN
  6
CONTINUOUS
 10
294.28805199999999
 20
363.78984800000001
 30
0.0
 11
298.13805200000002
 21
363.78984800000001
 31
0.0
  0
ARC
  5
9E59
  8
DANMEN
  6
CONTINUOUS
 10
294.28805199999999
 20
364.28984799999989
 30
0.0
 40
0.5
 50
180.0
 51
270.0
  0
LINE
  5
9E5D
  8
DANMEN
  6
CONTINUOUS
 10
299.98805299999998
 20
360.38590899999991
 30
0.0
 11
299.98805299999998
 21
359.13984799999992
 31
0.0
  0
LINE
  5
9E5E
  8
DANMEN
  6
CONTINUOUS
 10
306.08805199999989
 20
358.08984800000002
 30
0.0
 11
313.13805200000002
 21
358.08984800000002
 31
0.0
  0
ARC
  5
9E5F
  8
DANMEN
  6
CONTINUOUS
 10
302.588052
 20
359.13984799999992
 30
0.0
 40
1.0
 50
270.0
 51
0.0
  0
ARC
  5
9E60
  8
DANMEN
  6
CONTINUOUS
 10
306.08805199999989
 20
359.08984800000002
 30
0.0
 40
1.0
 50
180.0
 51
270.0
  0
LINE
  5
9E61
  8
DANMEN
  6
CONTINUOUS
 10
302.588052
 20
358.13984799999992
 30
0.0
 11
300.98805299999992
 21
358.13984799999992
 31
0.0
  0
LINE
  5
9E63
  8
DANMEN
  6
CONTINUOUS
 10
304.32743099999999
 20
362.03984799999989
 30
0.0
 11
303.18805200000003
 21
362.03984799999989
 31
0.0
  0
ARC
  5
9E64
  8
DANMEN
  6
CONTINUOUS
 10
303.18805200000003
 20
361.73984799999988
 30
0.0
 40
0.3
 50
90.0
 51
180.0
  0
ARC
  5
9E65
  8
DANMEN
  6
CONTINUOUS
 10
300.38805200000002
 20
361.73984799999988
 30
0.0
 40
0.3
 50
0.0
 51
90.0
  0
LINE
  5
9E67
  8
DANMEN
  6
CONTINUOUS
 10
303.588052
 20
360.38590899999991
 30
0.0
 11
303.588052
 21
359.13984799999992
 31
0.0
  0
LINE
  5
9E68
  8
DANMEN
  6
CONTINUOUS
 10
302.88805200000002
 20
361.73984799999988
 30
0.0
 11
302.88805200000002
 21
361.47677999999991
 31
0.0
  0
ARC
  5
9E69
  8
DANMEN
  6
CONTINUOUS
 10
302.588052
 20
360.38590899999991
 30
0.0
 40
1.0
 50
0.0
 51
65.375681999999983
  0
ARC
  5
9E6A
  8
DANMEN
  6
CONTINUOUS
 10
303.088052
 20
361.47677999999991
 30
0.0
 40
0.2
 50
180.0
 51
245.3756819999999
  0
ARC
  5
9E6B
  8
DANMEN
  6
CONTINUOUS
 10
300.48805199999993
 20
361.47677999999991
 30
0.0
 40
0.2
 50
294.62431800000002
 51
0.0
  0
LINE
  5
9E6C
  8
DANMEN
  6
CONTINUOUS
 10
300.68805200000003
 20
361.73984799999988
 30
0.0
 11
300.68805200000003
 21
361.47677999999991
 31
0.0
  0
LINE
  5
9E6D
  8
DANMEN
  6
CONTINUOUS
 10
305.088052
 20
360.47015399999992
 30
0.0
 11
305.088052
 21
359.08984800000002
 31
0.0
  0
ARC
  5
9E6E
  8
DANMEN
  6
CONTINUOUS
 10
303.088052
 20
360.47015399999992
 30
0.0
 40
2.0
 50
0.0
 51
51.706522999999997
  0
LINE
  5
9E6F
  8
DANMEN
  6
CONTINUOUS
 10
313.13805200000002
 20
363.78984800000001
 30
0.0
 11
313.13805200000002
 21
358.08984800000002
 31
0.0
  0
LINE
  5
9E72
  8
DANMEN
  6
CONTINUOUS
 10
313.13805200000002
 20
363.78984800000001
 30
0.0
 11
309.28805199999999
 21
363.78984800000001
 31
0.0
  0
ARC
  5
9E73
  8
DANMEN
  6
CONTINUOUS
 10
309.28805199999999
 20
364.28984799999989
 30
0.0
 40
0.5
 50
180.0
 51
270.0
  0
LINE
  5
9E76
  8
DANMEN
  6
CONTINUOUS
 10
294.28805199999999
 20
365.43984799999993
 30
0.0
 11
299.28805199999988
 21
365.43984799999993
 31
0.0
  0
ARC
  5
9E78
  8
DANMEN
  6
CONTINUOUS
 10
294.28805199999999
 20
364.93984799999993
 30
0.0
 40
0.5
 50
90.0
 51
180.0
  0
ARC
  5
9E7A
  8
DANMEN
  6
CONTINUOUS
 10
299.28805199999988
 20
364.93984799999993
 30
0.0
 40
0.5
 50
0.0
 51
90.0
  0
LINE
  5
9E7C
  8
DANMEN
  6
CONTINUOUS
 10
314.28805199999988
 20
365.43984799999993
 30
0.0
 11
309.28805199999999
 21
365.43984799999993
 31
0.0
  0
ARC
  5
9E7D
  8
DANMEN
  6
CONTINUOUS
 10
309.28805199999999
 20
364.93984799999993
 30
0.0
 40
0.5
 50
90.0
 51
180.0
  0
ARC
  5
9E81
  8
DANMEN
  6
CONTINUOUS
 10
314.28805199999988
 20
364.93984799999993
 30
0.0
 40
0.5
 50
0.0
 51
90.0
  0
LINE
  5
9E82
  8
SUNPO
  6
BYBLOCK
 10
229.78805199999999
 20
153.43984800000001
 30
0.0
 11
344.78805199999999
 21
153.43984800000001
 31
0.0
  0
LINE
  5
9E83
  8
SUNPO
  6
BYBLOCK
 10
314.78805199999999
 20
261.70572799999991
 30
0.0
 11
214.78805199999999
 21
261.70572799999991
 31
0.0
  0
LINE
  5
9E84
  8
SUNPO
  6
BYBLOCK
 10
314.78805199999999
 20
145.02515
 30
0.0
 11
226.78805199999991
 21
145.02515
 31
0.0
  0
LINE
  5
9E85
  8
SUNPO
  6
BYBLOCK
 10
211.78805199999991
 20
173.939851
 30
0.0
 11
211.78805199999991
 21
261.70572799999991
 31
0.0
  0
LINE
  5
9E86
  8
SUNPO
  6
BYBLOCK
 10
203.99722199999999
 20
162.43984800000001
 30
0.0
 11
203.99722199999999
 21
222.43984800000001
 31
0.0
  0
LINE
  5
9E87
  8
SUNPO
  6
BYBLOCK
 10
225.28805199999999
 20
153.43984800000001
 30
0.0
 11
203.99722199999999
 21
153.43984800000001
 31
0.0
  0
LINE
  5
9E88
  8
SUNPO
  6
BYBLOCK
 10
226.78805199999991
 20
145.02515
 30
0.0
 11
214.78805199999999
 21
145.02515
 31
0.0
  0
LINE
  5
9E89
  8
SUNPO
  6
BYBLOCK
 10
203.99722199999999
 20
153.43984800000001
 30
0.0
 11
203.99722199999999
 21
162.43984800000001
 31
0.0
  0
LINE
  5
9E8A
  8
SUNPO
  6
BYBLOCK
 10
214.78805199999999
 20
160.93984800000001
 30
0.0
 11
214.78805199999999
 21
145.02515
 31
0.0
  0
LINE
  5
9E8B
  8
SUNPO
  6
BYBLOCK
 10
211.78805199999991
 20
164.73984899999999
 30
0.0
 11
211.78805199999991
 21
145.02515
 31
0.0
  0
TEXT
  5
9E8C
  8
SUNPO
  6
CONTINUOUS
 10
203.49722199999991
 20
157.106515
 30
0.0
 40
2.5
  1
9
 50
90.0
  7
MX_NOTE_STANDARD
  0
TEXT
  5
9E8D
  8
SUNPO
  6
CONTINUOUS
 10
212.4547189999999
 20
145.52514999999991
 30
0.0
 40
2.5
  1
3
  7
MX_NOTE_STANDARD
  0
LINE
  5
9E8E
  8
SUNPO
  6
BYBLOCK
 10
214.78805199999999
 20
145.02515
 30
0.0
 11
211.78805199999991
 21
145.02515
 31
0.0
  0
ARC
  5
9E90
  8
SUNPO
  6
BYBLOCK
 10
211.78805199999991
 20
145.02515
 30
0.0
 40
0.145
 50
0.0
 51
180.0
  0
ARC
  5
9E91
  8
SUNPO
  6
BYBLOCK
 10
211.78805199999991
 20
145.02515
 30
0.0
 40
0.145
 50
180.0
 51
0.0
  0
ARC
  5
9E93
  8
SUNPO
  6
BYBLOCK
 10
214.78805199999999
 20
145.02515
 30
0.0
 40
0.145
 50
0.0
 51
180.0
  0
ARC
  5
9E94
  8
SUNPO
  6
BYBLOCK
 10
214.78805199999999
 20
145.02515
 30
0.0
 40
0.145
 50
180.0
 51
0.0
  0
ARC
  5
9E95
  8
SUNPO
  6
BYBLOCK
 10
214.78805199999999
 20
145.02515
 30
0.0
 40
0.145
 50
180.0
 51
0.0
  0
ARC
  5
9E96
  8
SUNPO
  6
BYBLOCK
 10
214.78805199999999
 20
145.02515
 30
0.0
 40
0.145
 50
0.0
 51
180.0
  0
ARC
  5
9E97
  8
SUNPO
  6
BYBLOCK
 10
203.99722199999999
 20
153.43984800000001
 30
0.0
 40
0.145
 50
90.0
 51
270.0
  0
ARC
  5
9E98
  8
SUNPO
  6
BYBLOCK
 10
203.99722199999999
 20
153.43984800000001
 30
0.0
 40
0.145
 50
270.0
 51
90.0
  0
LINE
  5
9E99
  8
SUNPO
  6
BYBLOCK
 10
213.28805199999999
 20
162.43984800000001
 30
0.0
 11
203.99722199999999
 21
162.43984800000001
 31
0.0
  0
ARC
  5
9E9C
  8
SUNPO
  6
BYBLOCK
 10
203.99722199999999
 20
162.43984800000001
 30
0.0
 40
0.145
 50
90.0
 51
270.0
  0
ARC
  5
9E9D
  8
SUNPO
  6
BYBLOCK
 10
203.99722199999999
 20
162.43984800000001
 30
0.0
 40
0.145
 50
270.0
 51
90.0
  0
ARC
  5
9E9E
  8
SUNPO
  6
BYBLOCK
 10
203.99722199999999
 20
162.43984800000001
 30
0.0
 40
0.145
 50
270.0
 51
90.0
  0
ARC
  5
9E9F
  8
SUNPO
  6
BYBLOCK
 10
203.99722199999999
 20
162.43984800000001
 30
0.0
 40
0.145
 50
90.0
 51
270.0
  0
LINE
  5
9EA5
  8
SUNPO
  6
BYBLOCK
 10
226.78805199999991
 20
151.93984800000001
 30
0.0
 11
226.78805199999991
 21
145.02515
 31
0.0
  0
TEXT
  5
9EA6
  8
SUNPO
  6
CONTINUOUS
 10
219.12138599999989
 20
145.52514999999991
 30
0.0
 40
2.5
  1
12
  7
MX_NOTE_STANDARD
  0
ARC
  5
9EA8
  8
SUNPO
  6
BYBLOCK
 10
226.78805199999991
 20
145.02515
 30
0.0
 40
0.145
 50
0.0
 51
180.0
  0
ARC
  5
9EA9
  8
SUNPO
  6
BYBLOCK
 10
226.78805199999991
 20
145.02515
 30
0.0
 40
0.145
 50
180.0
 51
0.0
  0
ARC
  5
9EAA
  8
SUNPO
  6
BYBLOCK
 10
226.78805199999991
 20
145.02515
 30
0.0
 40
0.145
 50
180.0
 51
0.0
  0
ARC
  5
9EAB
  8
SUNPO
  6
BYBLOCK
 10
226.78805199999991
 20
145.02515
 30
0.0
 40
0.145
 50
0.0
 51
180.0
  0
TEXT
  5
9EB0
  8
SUNPO
  6
CONTINUOUS
 10
203.49722199999991
 20
190.56484800000001
 30
0.0
 40
2.5
  1
60
 50
90.0
  7
MX_NOTE_STANDARD
  0
LINE
  5
9EB1
  8
SUNPO
  6
BYBLOCK
 10
213.28805199999999
 20
222.43984800000001
 30
0.0
 11
203.99722199999999
 21
222.43984800000001
 31
0.0
  0
ARC
  5
9EB3
  8
SUNPO
  6
BYBLOCK
 10
203.99722199999999
 20
222.43984800000001
 30
0.0
 40
0.145
 50
270.0
 51
90.0
  0
ARC
  5
9EB4
  8
SUNPO
  6
BYBLOCK
 10
203.99722199999999
 20
222.43984800000001
 30
0.0
 40
0.145
 50
90.0
 51
270.0
  0
LINE
  5
9EB6
  8
SUNPO
  6
BYBLOCK
 10
211.78805199999991
 20
261.70572799999991
 30
0.0
 11
214.78805199999999
 21
261.70572799999991
 31
0.0
  0
TEXT
  5
9EB7
  8
SUNPO
  6
CONTINUOUS
 10
212.4547189999999
 20
262.20572799999991
 30
0.0
 40
2.5
  1
3
  7
MX_NOTE_STANDARD
  0
ARC
  5
9EB8
  8
SUNPO
  6
BYBLOCK
 10
211.78805199999991
 20
261.70572799999991
 30
0.0
 40
0.145
 50
0.0
 51
180.0
  0
ARC
  5
9EB9
  8
SUNPO
  6
BYBLOCK
 10
211.78805199999991
 20
261.70572799999991
 30
0.0
 40
0.145
 50
180.0
 51
0.0
  0
ARC
  5
9EBD
  8
SUNPO
  6
BYBLOCK
 10
214.78805199999999
 20
261.70572799999991
 30
0.0
 40
0.145
 50
0.0
 51
180.0
  0
ARC
  5
9EBE
  8
SUNPO
  6
BYBLOCK
 10
214.78805199999999
 20
261.70572799999991
 30
0.0
 40
0.145
 50
180.0
 51
0.0
  0
ARC
  5
9EBF
  8
SUNPO
  6
BYBLOCK
 10
214.78805199999999
 20
261.70572799999991
 30
0.0
 40
0.145
 50
180.0
 51
0.0
  0
ARC
  5
9EC0
  8
SUNPO
  6
BYBLOCK
 10
214.78805199999999
 20
261.70572799999991
 30
0.0
 40
0.145
 50
0.0
 51
180.0
  0
LINE
  5
9EC2
  8
SUNPO
  6
CONTINUOUS
 10
344.78805199999999
 20
266.43964199999999
 30
0.0
 11
344.78805199999999
 21
222.43984800000001
 31
0.0
  0
LINE
  5
9EC3
  8
SUNPO
  6
CONTINUOUS
 10
344.78805199999999
 20
222.43984800000001
 30
0.0
 11
339.78805199999999
 21
227.43984800000001
 31
0.0
  0
LINE
  5
9EC4
  8
SUNPO
  6
CONTINUOUS
 10
349.78805199999988
 20
227.43984800000001
 30
0.0
 11
344.78805199999999
 21
222.43984800000001
 31
0.0
  0
LINE
  5
9EC5
  8
SUNPO
  6
BYBLOCK
 10
334.78805199999988
 20
270.43984699999999
 30
0.0
 11
334.78805199999988
 21
222.43984800000001
 31
0.0
  0
LINE
  5
9EC6
  8
SUNPO
  6
BYBLOCK
 10
316.28805199999988
 20
162.43984800000001
 30
0.0
 11
334.78805199999988
 21
162.43984800000001
 31
0.0
  0
LINE
  5
9EC7
  8
SUNPO
  6
BYBLOCK
 10
316.28805199999988
 20
222.43984800000001
 30
0.0
 11
344.78805199999999
 21
222.43984800000001
 31
0.0
  0
LINE
  5
9EC8
  8
SUNPO
  6
BYBLOCK
 10
316.28805199999988
 20
162.43984800000001
 30
0.0
 11
344.78805199999999
 21
162.43984800000001
 31
0.0
  0
LINE
  5
9EC9
  8
SUNPO
  6
BYBLOCK
 10
316.28805199999988
 20
182.43984800000001
 30
0.0
 11
334.78805199999988
 21
182.43984800000001
 31
0.0
  0
TEXT
  5
9ECA
  8
SUNPO
  6
CONTINUOUS
 10
268.70471900000001
 20
145.52514999999991
 30
0.0
 40
2.5
  1
88
  7
MX_NOTE_STANDARD
  0
LINE
  5
9ECB
  8
SUNPO
  6
BYBLOCK
 10
314.78805199999999
 20
160.93984800000001
 30
0.0
 11
314.78805199999999
 21
145.02515
 31
0.0
  0
ARC
  5
9ECC
  8
SUNPO
  6
BYBLOCK
 10
314.78805199999999
 20
145.02515
 30
0.0
 40
0.145
 50
180.0
 51
0.0
  0
ARC
  5
9ECD
  8
SUNPO
  6
BYBLOCK
 10
314.78805199999999
 20
145.02515
 30
0.0
 40
0.145
 50
0.0
 51
180.0
  0
LINE
  5
9ED6
  8
SUNPO
  6
BYBLOCK
 10
368.35694699999999
 20
181.20515199999991
 30
0.0
 11
368.35694699999999
 21
172.705152
 31
0.0
  0
LINE
  5
9ED7
  8
SUNPO
  6
BYBLOCK
 10
368.35694699999999
 20
188.205152
 30
0.0
 11
368.35694699999999
 21
162.705152
 31
0.0
  0
LINE
  5
9ED8
  8
SUNPO
  6
BYBLOCK
 10
334.78805199999988
 20
182.43984800000001
 30
0.0
 11
334.78805199999988
 21
162.43984800000001
 31
0.0
  0
LINE
  5
9ED9
  8
SUNPO
  6
BYBLOCK
 10
344.78805199999999
 20
222.43984800000001
 30
0.0
 11
344.78805199999999
 21
162.43984800000001
 31
0.0
  0
LINE
  5
9EDA
  8
SUNPO
  6
BYBLOCK
 10
344.78805199999999
 20
162.43984800000001
 30
0.0
 11
344.78805199999999
 21
153.43984800000001
 31
0.0
  0
TEXT
  5
9EDB
  8
SUNPO
  6
CONTINUOUS
 10
344.28805199999999
 20
157.106515
 30
0.0
 40
2.5
  1
9
 50
90.0
  7
MX_NOTE_STANDARD
  0
ARC
  5
9EDD
  8
SUNPO
  6
BYBLOCK
 10
344.78805199999999
 20
153.43984800000001
 30
0.0
 40
0.145
 50
90.0
 51
270.0
  0
ARC
  5
9EDE
  8
SUNPO
  6
BYBLOCK
 10
344.78805199999999
 20
153.43984800000001
 30
0.0
 40
0.145
 50
270.0
 51
90.0
  0
TEXT
  5
9EDF
  8
SUNPO
  6
CONTINUOUS
 10
334.28805199999999
 20
170.56484800000001
 30
0.0
 40
2.5
  1
20
 50
90.0
  7
MX_NOTE_STANDARD
  0
LINE
  5
9EE0
  8
SUNPO
  6
BYBLOCK
 10
336.28805199999999
 20
162.43984800000001
 30
0.0
 11
344.78805199999999
 21
162.43984800000001
 31
0.0
  0
ARC
  5
9EE3
  8
SUNPO
  6
BYBLOCK
 10
334.78805199999988
 20
162.43984800000001
 30
0.0
 40
0.145
 50
90.0
 51
270.0
  0
ARC
  5
9EE4
  8
SUNPO
  6
BYBLOCK
 10
334.78805199999988
 20
162.43984800000001
 30
0.0
 40
0.145
 50
270.0
 51
90.0
  0
ARC
  5
9EE6
  8
SUNPO
  6
BYBLOCK
 10
344.78805199999999
 20
162.43984800000001
 30
0.0
 40
0.145
 50
270.0
 51
90.0
  0
ARC
  5
9EE7
  8
SUNPO
  6
BYBLOCK
 10
344.78805199999999
 20
162.43984800000001
 30
0.0
 40
0.145
 50
90.0
 51
270.0
  0
ARC
  5
9EE8
  8
SUNPO
  6
BYBLOCK
 10
344.78805199999999
 20
162.43984800000001
 30
0.0
 40
0.145
 50
90.0
 51
270.0
  0
ARC
  5
9EE9
  8
SUNPO
  6
BYBLOCK
 10
344.78805199999999
 20
162.43984800000001
 30
0.0
 40
0.145
 50
270.0
 51
90.0
  0
ARC
  5
9EEB
  8
SUNPO
  6
BYBLOCK
 10
368.35694699999999
 20
162.705152
 30
0.0
 40
0.145
 50
0.0
 51
180.0
  0
ARC
  5
9EEC
  8
SUNPO
  6
BYBLOCK
 10
368.35694699999999
 20
162.705152
 30
0.0
 40
0.145
 50
180.0
 51
0.0
  0
ARC
  5
9EEE
  8
SUNPO
  6
BYBLOCK
 10
368.35694699999999
 20
172.705152
 30
0.0
 40
0.145
 50
0.0
 51
180.0
  0
ARC
  5
9EEF
  8
SUNPO
  6
BYBLOCK
 10
368.35694699999999
 20
172.705152
 30
0.0
 40
0.145
 50
180.0
 51
0.0
  0
TEXT
  5
9EF0
  8
SUNPO
  6
CONTINUOUS
 10
374.19028100000003
 20
173.20515199999991
 30
0.0
 40
2.5
  1
15
  7
MX_NOTE_STANDARD
  0
LINE
  5
9EF1
  8
SUNPO
  6
BYBLOCK
 10
334.78805199999988
 20
222.43984800000001
 30
0.0
 11
334.78805199999988
 21
182.43984800000001
 31
0.0
  0
TEXT
  5
9EF2
  8
SUNPO
  6
CONTINUOUS
 10
334.28805199999999
 20
200.56484800000001
 30
0.0
 40
2.5
  1
40
 50
90.0
  7
MX_NOTE_STANDARD
  0
TEXT
  5
9EF3
  8
SUNPO
  6
CONTINUOUS
 10
344.28805199999999
 20
190.56484800000001
 30
0.0
 40
2.5
  1
60
 50
90.0
  7
MX_NOTE_STANDARD
  0
ARC
  5
9EF5
  8
SUNPO
  6
BYBLOCK
 10
334.78805199999988
 20
182.43984800000001
 30
0.0
 40
0.145
 50
270.0
 51
90.0
  0
ARC
  5
9EF6
  8
SUNPO
  6
BYBLOCK
 10
334.78805199999988
 20
182.43984800000001
 30
0.0
 40
0.145
 50
90.0
 51
270.0
  0
ARC
  5
9EF7
  8
SUNPO
  6
BYBLOCK
 10
334.78805199999988
 20
182.43984800000001
 30
0.0
 40
0.145
 50
90.0
 51
270.0
  0
ARC
  5
9EF8
  8
SUNPO
  6
BYBLOCK
 10
334.78805199999988
 20
182.43984800000001
 30
0.0
 40
0.145
 50
270.0
 51
90.0
  0
ARC
  5
9EFA
  8
SUNPO
  6
BYBLOCK
 10
334.78805199999988
 20
222.43984800000001
 30
0.0
 40
0.145
 50
90.0
 51
270.0
  0
ARC
  5
9EFB
  8
SUNPO
  6
BYBLOCK
 10
334.78805199999988
 20
222.43984800000001
 30
0.0
 40
0.145
 50
270.0
 51
90.0
  0
ARC
  5
9EFC
  8
SUNPO
  6
BYBLOCK
 10
334.78805199999988
 20
222.43984800000001
 30
0.0
 40
0.145
 50
270.0
 51
90.0
  0
ARC
  5
9EFD
  8
SUNPO
  6
BYBLOCK
 10
334.78805199999988
 20
222.43984800000001
 30
0.0
 40
0.145
 50
90.0
 51
270.0
  0
LINE
  5
9F01
  8
SUNPO
  6
BYBLOCK
 10
314.78805199999999
 20
261.70572799999991
 30
0.0
 11
321.788049
 21
261.70572799999991
 31
0.0
  0
TEXT
  5
9F02
  8
SUNPO
  6
CONTINUOUS
 10
262.28805199999988
 20
262.20572799999991
 30
0.0
 40
2.5
  1
100
  7
MX_NOTE_STANDARD
  0
LINE
  5
9F03
  8
SUNPO
  6
BYBLOCK
 10
314.78805199999999
 20
252.17897499999989
 30
0.0
 11
314.78805199999999
 21
261.70572799999991
 31
0.0
  0
ARC
  5
9F05
  8
SUNPO
  6
BYBLOCK
 10
314.78805199999999
 20
261.70572799999991
 30
0.0
 40
0.145
 50
180.0
 51
0.0
  0
ARC
  5
9F06
  8
SUNPO
  6
BYBLOCK
 10
314.78805199999999
 20
261.70572799999991
 30
0.0
 40
0.145
 50
0.0
 51
180.0
  0
ARC
  5
9F07
  8
SUNPO
  6
BYBLOCK
 10
314.78805199999999
 20
261.70572799999991
 30
0.0
 40
0.145
 50
0.0
 51
180.0
  0
ARC
  5
9F08
  8
SUNPO
  6
BYBLOCK
 10
314.78805199999999
 20
261.70572799999991
 30
0.0
 40
0.145
 50
180.0
 51
0.0
  0
LINE
  5
9F0A
  8
SUNPO
  6
CONTINUOUS
 10
344.78805199999999
 20
277.080893
 30
0.0
 11
344.78805199999999
 21
271.580893
 31
0.0
  0
LINE
  5
9F0B
  8
SUNPO
  6
CONTINUOUS
 10
339.78805199999999
 20
227.43984800000001
 30
0.0
 11
349.78805199999988
 21
227.43984800000001
 31
0.0
  0
TEXT
  5
9F0C
  8
SUNPO
  6
CONTINUOUS
 10
334.28805199999999
 20
244.356514
 30
0.0
 40
2.5
  1
48
 50
90.0
  7
MX_NOTE_STANDARD
  0
LINE
  5
9F0E
  8
SUNPO
  6
BYBLOCK
 10
321.08805599999999
 20
270.43984699999999
 30
0.0
 11
334.78805199999988
 21
270.43984699999999
 31
0.0
  0
LINE
  5
9F10
  8
SUNPO
  6
BYBLOCK
 10
321.788049
 20
261.70572799999991
 30
0.0
 11
325.57353599999999
 21
261.70572799999991
 31
0.0
  0
TEXT
  5
9F11
  8
SUNPO
  6
CONTINUOUS
 10
323.49020299999989
 20
262.20572799999991
 30
0.0
 40
2.5
  1
7
  7
MX_NOTE_STANDARD
  0
ARC
  5
9F13
  8
SUNPO
  6
BYBLOCK
 10
321.788049
 20
261.70572799999991
 30
0.0
 40
0.145
 50
180.0
 51
0.0
  0
ARC
  5
9F14
  8
SUNPO
  6
BYBLOCK
 10
321.788049
 20
261.70572799999991
 30
0.0
 40
0.145
 50
0.0
 51
180.0
  0
LINE
  5
9F16
  8
SUNPO
  6
CONTINUOUS
 10
340.78805199999988
 20
271.580893
 30
0.0
 11
348.78805199999999
 21
271.580893
 31
0.0
  0
LINE
  5
9F17
  8
SUNPO
  6
CONTINUOUS
 10
340.78805199999988
 20
269.580893
 30
0.0
 11
348.78805199999999
 21
269.580893
 31
0.0
  0
ARC
  5
9F18
  8
SUNPO
  6
BYBLOCK
 10
334.78805199999988
 20
270.43984699999999
 30
0.0
 40
0.145
 50
270.0
 51
90.0
  0
ARC
  5
9F19
  8
SUNPO
  6
BYBLOCK
 10
334.78805199999988
 20
270.43984699999999
 30
0.0
 40
0.145
 50
90.0
 51
270.0
  0
LINE
  5
9F1A
  8
SUNPO
  6
CONTINUOUS
 10
340.78805199999988
 20
272.98088699999988
 30
0.0
 11
340.78805199999988
 21
267.78354399999989
 31
0.0
  0
LINE
  5
9F1B
  8
SUNPO
  6
CONTINUOUS
 10
348.78805199999999
 20
272.98088699999988
 30
0.0
 11
348.78805199999999
 21
267.78354399999989
 31
0.0
  0
LINE
  5
9F1D
  8
SUNPO
  6
BYBLOCK
 10
321.08805199999989
 20
282.43984799999993
 30
0.0
 11
334.78805199999988
 21
282.43984799999993
 31
0.0
  0
LINE
  5
9F1F
  8
SUNPO
  6
CONTINUOUS
 10
343.58797900000002
 20
285.09615200000002
 30
0.0
 11
343.58797900000002
 21
280.3076089999999
 31
0.0
  0
LINE
  5
9F20
  8
SUNPO
  6
CONTINUOUS
 10
345.98797300000001
 20
285.09615200000002
 30
0.0
 11
345.98797300000001
 21
280.3076089999999
 31
0.0
  0
LINE
  5
9F21
  8
SUNPO
  6
CONTINUOUS
 10
340.78805199999988
 20
277.080893
 30
0.0
 11
348.78805199999999
 21
277.080893
 31
0.0
  0
LINE
  5
9F22
  8
SUNPO
  6
CONTINUOUS
 10
340.78805199999988
 20
279.09383899999989
 30
0.0
 11
340.78805199999988
 21
275.36079199999989
 31
0.0
  0
ARC
  5
9F24
  8
SUNPO
  6
BYBLOCK
 10
334.78805199999988
 20
282.43984799999993
 30
0.0
 40
0.145
 50
90.0
 51
270.0
  0
ARC
  5
9F25
  8
SUNPO
  6
BYBLOCK
 10
334.78805199999988
 20
282.43984799999993
 30
0.0
 40
0.145
 50
270.0
 51
90.0
  0
LINE
  5
9F26
  8
SUNPO
  6
CONTINUOUS
 10
348.78805199999999
 20
279.09383899999989
 30
0.0
 11
348.78805199999999
 21
275.36079199999989
 31
0.0
  0
TEXT
  5
9F28
  8
SUNPO
  6
CONTINUOUS
 10
334.28805199999999
 20
304.356515
 30
0.0
 40
2.5
  1
48
 50
90.0
  7
MX_NOTE_STANDARD
  0
LINE
  5
9F29
  8
SUNPO
  6
BYBLOCK
 10
368.35694699999999
 20
291.20515199999988
 30
0.0
 11
368.35694699999999
 21
299.70515199999988
 31
0.0
  0
ARC
  5
9F2B
  8
SUNPO
  6
BYBLOCK
 10
368.35694699999999
 20
299.70515199999988
 30
0.0
 40
0.145
 50
0.0
 51
180.0
  0
ARC
  5
9F2C
  8
SUNPO
  6
BYBLOCK
 10
368.35694699999999
 20
299.70515199999988
 30
0.0
 40
0.145
 50
180.0
 51
0.0
  0
LINE
  5
9F2D
  8
SUNPO
  6
BYBLOCK
 10
203.99722199999999
 20
330.43984799999993
 30
0.0
 11
203.99722199999999
 21
365.43984799999993
 31
0.0
  0
LINE
  5
9F2E
  8
SUNPO
  6
BYBLOCK
 10
213.28805199999999
 20
330.43984799999993
 30
0.0
 11
203.99722199999999
 21
330.43984799999993
 31
0.0
  0
ARC
  5
9F2F
  8
SUNPO
  6
BYBLOCK
 10
203.99722199999999
 20
330.43984799999993
 30
0.0
 40
0.145
 50
90.0
 51
270.0
  0
ARC
  5
9F30
  8
SUNPO
  6
BYBLOCK
 10
203.99722199999999
 20
330.43984799999993
 30
0.0
 40
0.145
 50
270.0
 51
90.0
  0
TEXT
  5
9F32
  8
SUNPO
  6
CONTINUOUS
 10
203.49722199999991
 20
345.856515
 30
0.0
 40
2.5
  1
35
 50
90.0
  7
MX_NOTE_STANDARD
  0
LINE
  5
9F33
  8
SUNPO
  6
BYBLOCK
 10
213.28805199999999
 20
365.43984799999993
 30
0.0
 11
203.99722199999999
 21
365.43984799999993
 31
0.0
  0
ARC
  5
9F35
  8
SUNPO
  6
BYBLOCK
 10
203.99722199999999
 20
365.43984799999993
 30
0.0
 40
0.145
 50
270.0
 51
90.0
  0
ARC
  5
9F36
  8
SUNPO
  6
BYBLOCK
 10
203.99722199999999
 20
365.43984799999993
 30
0.0
 40
0.145
 50
90.0
 51
270.0
  0
LINE
  5
9F38
  8
SUNPO
  6
BYBLOCK
 10
316.28805199999988
 20
330.43984799999993
 30
0.0
 11
334.78805199999988
 21
330.43984799999993
 31
0.0
  0
LINE
  5
9F39
  8
SUNPO
  6
BYBLOCK
 10
316.28805199999988
 20
365.43984799999993
 30
0.0
 11
344.78805199999999
 21
365.43984799999993
 31
0.0
  0
LINE
  5
9F3A
  8
SUNPO
  6
BYBLOCK
 10
316.28805199999988
 20
330.43984799999993
 30
0.0
 11
344.78805199999999
 21
330.43984799999993
 31
0.0
  0
LINE
  5
9F3E
  8
SUNPO
  6
CONTINUOUS
 10
344.78805199999999
 20
330.43984799999993
 30
0.0
 11
349.78805199999988
 21
325.43984799999993
 31
0.0
  0
LINE
  5
9F3F
  8
SUNPO
  6
CONTINUOUS
 10
349.78805199999988
 20
325.43984799999993
 30
0.0
 11
339.78805199999999
 21
325.43984799999993
 31
0.0
  0
LINE
  5
9F40
  8
SUNPO
  6
BYBLOCK
 10
344.78805199999999
 20
365.43984799999993
 30
0.0
 11
344.78805199999999
 21
330.43984799999993
 31
0.0
  0
LINE
  5
9F41
  8
SUNPO
  6
CONTINUOUS
 10
339.78805199999999
 20
325.43984799999993
 30
0.0
 11
344.78805199999999
 21
330.43984799999993
 31
0.0
  0
ARC
  5
9F42
  8
SUNPO
  6
BYBLOCK
 10
334.78805199999988
 20
330.43984799999993
 30
0.0
 40
0.145
 50
270.0
 51
90.0
  0
ARC
  5
9F43
  8
SUNPO
  6
BYBLOCK
 10
334.78805199999988
 20
330.43984799999993
 30
0.0
 40
0.145
 50
90.0
 51
270.0
  0
TEXT
  5
9F47
  8
SUNPO
  6
CONTINUOUS
 10
344.28805199999999
 20
345.856515
 30
0.0
 40
2.5
  1
35
 50
90.0
  7
MX_NOTE_STANDARD
  0
ARC
  5
9F48
  8
SUNPO
  6
BYBLOCK
 10
344.78805199999999
 20
365.43984799999993
 30
0.0
 40
0.145
 50
270.0
 51
90.0
  0
ARC
  5
9F49
  8
SUNPO
  6
BYBLOCK
 10
344.78805199999999
 20
365.43984799999993
 30
0.0
 40
0.145
 50
90.0
 51
270.0
  0
LINE
  5
9F4B
  8
DANMEN
  6
CONTINUOUS
 10
383.35694699999999
 20
268.20515199999988
 30
0.0
 11
383.35694699999999
 21
239.30515199999991
 31
0.0
  0
LINE
  5
9F4C
  8
DANMEN
  6
CONTINUOUS
 10
385.38276000000002
 20
249.0407359999999
 30
0.0
 11
388.15695199999988
 21
242.50515200000001
 31
0.0
  0
ARC
  5
9F4D
  8
DANMEN
  6
CONTINUOUS
 10
384.83045699999991
 20
248.806298
 30
0.0
 40
0.6
 50
23.0
 51
273.52877899999999
  0
LINE
  5
9F4E
  8
DANMEN
  6
CONTINUOUS
 10
540.35694699999988
 20
190.80515199999991
 30
0.0
 11
540.35694699999988
 21
288.60515199999992
 31
0.0
  0
LINE
  5
9F4F
  8
DANMEN
  6
CONTINUOUS
 10
542.00694699999985
 20
288.05515200000002
 30
0.0
 11
542.00694699999985
 21
191.355152
 31
0.0
  0
LINE
  5
9F50
  8
DANMEN
  6
CONTINUOUS
 10
463.35694699999999
 20
241.705152
 30
0.0
 11
540.35694699999988
 21
241.705152
 31
0.0
  0
LINE
  5
9F52
  8
DANMEN
  6
CONTINUOUS
 10
524.35694699999988
 20
182.70515199999991
 30
0.0
 11
491.85694699999999
 21
182.70515199999991
 31
0.0
  0
LINE
  5
9F53
  8
DANMEN
  6
CONTINUOUS
 10
523.35694699999988
 20
184.355152
 30
0.0
 11
505.35694699999999
 21
184.355152
 31
0.0
  0
LINE
  5
9F54
  8
DANMEN
  6
CONTINUOUS
 10
491.85694699999999
 20
234.70515399999991
 30
0.0
 11
514.85694699999988
 21
234.70515399999991
 31
0.0
  0
ARC
  5
9F55
  8
DANMEN
  6
CONTINUOUS
 10
514.55694699999981
 20
231.40515400000001
 30
0.0
 40
1.0
 50
180.0
 51
270.0
  0
ARC
  5
9F56
  8
DANMEN
  6
CONTINUOUS
 10
513.05694699999992
 20
232.255154
 30
0.0
 40
0.5
 50
0.0
 51
90.0
  0
LINE
  5
9F57
  8
DANMEN
  6
CONTINUOUS
 10
383.35694699999999
 20
234.70515199999991
 30
0.0
 11
460.35694699999999
 21
234.70515199999991
 31
0.0
  0
LINE
  5
9F58
  8
DANMEN
  6
CONTINUOUS
 10
383.35694699999999
 20
199.55515199999999
 30
0.0
 11
460.35694699999999
 21
199.55515199999999
 31
0.0
  0
LINE
  5
9F59
  8
DANMEN
  6
CONTINUOUS
 10
383.35694699999999
 20
191.50515200000001
 30
0.0
 11
460.35694699999999
 21
191.50515200000001
 31
0.0
  0
LINE
  5
9F5A
  8
DANMEN
  6
CONTINUOUS
 10
383.35694699999999
 20
201.90515499999989
 30
0.0
 11
460.35694699999999
 21
201.90515499999989
 31
0.0
  0
LINE
  5
9F5B
  8
DANMEN
  6
CONTINUOUS
 10
395.85694699999999
 20
241.705152
 30
0.0
 11
460.35694699999999
 21
241.705152
 31
0.0
  0
LINE
  5
9F5C
  8
DANMEN
  6
CONTINUOUS
 10
397.85694699999999
 20
189.70515199999991
 30
0.0
 11
460.35694699999999
 21
189.70515199999991
 31
0.0
  0
LINE
  5
9F5D
  8
DANMEN
  6
CONTINUOUS
 10
383.35694699999999
 20
190.80515199999991
 30
0.0
 11
383.35694699999999
 21
238.205152
 31
0.0
  0
LINE
  5
9F5E
  8
DANMEN
  6
CONTINUOUS
 10
398.35694699999999
 20
190.85515199999989
 30
0.0
 11
398.35694699999999
 21
190.205152
 31
0.0
  0
ARC
  5
9F60
  8
DANMEN
  6
CONTINUOUS
 10
397.85694699999999
 20
190.205152
 30
0.0
 40
0.5
 50
270.0
 51
0.0
  0
LINE
  5
9F62
  8
DANMEN
  6
CONTINUOUS
 10
385.35694699999999
 20
191.355152
 30
0.0
 11
397.85694699999999
 21
191.355152
 31
0.0
  0
LINE
  5
9F66
  8
DANMEN
  6
CONTINUOUS
 10
385.35694699999999
 20
191.355152
 30
0.0
 11
385.35694699999999
 21
190.80515199999991
 31
0.0
  0
LINE
  5
9F67
  8
DANMEN
  6
CONTINUOUS
 10
383.35694699999999
 20
190.80515199999991
 30
0.0
 11
385.35694699999999
 21
190.80515199999991
 31
0.0
  0
ARC
  5
9F69
  8
DANMEN
  6
CONTINUOUS
 10
397.85694699999999
 20
190.85515199999989
 30
0.0
 40
0.5
 50
0.0
 51
90.0
  0
LINE
  5
9F6A
  8
DANMEN
  6
CONTINUOUS
 10
396.35694699999999
 20
201.90515499999989
 30
0.0
 11
396.35694699999999
 21
241.705152
 31
0.0
  0
LINE
  5
9F6B
  8
DANMEN
  6
CONTINUOUS
 10
389.35694699999999
 20
239.30515199999991
 30
0.0
 11
395.35694699999999
 21
239.30515199999991
 31
0.0
  0
ARC
  5
9F6C
  8
DANMEN
  6
CONTINUOUS
 10
390.05694699999998
 20
241.20515199999991
 30
0.0
 40
0.5
 50
0.0
 51
90.0
  0
LINE
  5
9F6D
  8
DANMEN
  6
CONTINUOUS
 10
389.35694699999999
 20
240.90515199999999
 30
0.0
 11
390.55694699999998
 21
240.90515199999999
 31
0.0
  0
LINE
  5
9F6E
  8
DANMEN
  6
CONTINUOUS
 10
383.35694699999999
 20
238.205152
 30
0.0
 11
395.85694699999999
 21
238.205152
 31
0.0
  0
ARC
  5
9F6F
  8
DANMEN
  6
CONTINUOUS
 10
390.66992199999999
 20
242.65503799999999
 30
0.0
 40
0.25
 50
131.73810499999999
 51
311.7381049999999
  0
LINE
  5
9F70
  8
DANMEN
  6
CONTINUOUS
 10
389.70695000000001
 20
240.705152
 30
0.0
 11
390.70695099999989
 21
240.705152
 31
0.0
  0
LINE
  5
9F71
  8
DANMEN
  6
CONTINUOUS
 10
389.70695000000001
 20
239.705152
 30
0.0
 11
390.70695099999989
 21
239.705152
 31
0.0
  0
LINE
  5
9F72
  8
DANMEN
  6
CONTINUOUS
 10
387.62744300000003
 20
241.705152
 30
0.0
 11
390.70695099999989
 21
241.705152
 31
0.0
  0
LINE
  5
9F73
  8
DANMEN
  6
CONTINUOUS
 10
388.15695199999988
 20
242.50515200000001
 30
0.0
 11
395.55695099999991
 21
242.50515200000001
 31
0.0
  0
LINE
  5
9F74
  8
DANMEN
  6
CONTINUOUS
 10
384.86738700000001
 20
248.20743499999989
 30
0.0
 11
387.62744300000003
 21
241.705152
 31
0.0
  0
LINE
  5
9F75
  8
DANMEN
  6
CONTINUOUS
 10
383.35694699999999
 20
241.705152
 30
0.0
 11
388.85694699999999
 21
241.705152
 31
0.0
  0
LINE
  5
9F76
  8
DANMEN
  6
CONTINUOUS
 10
383.35694699999999
 20
239.30515199999991
 30
0.0
 11
388.35694699999999
 21
239.30515199999991
 31
0.0
  0
LINE
  5
9F7C
  8
DANMEN
  6
CONTINUOUS
 10
389.35694699999999
 20
240.90515199999999
 30
0.0
 11
389.35694699999999
 21
239.30515199999991
 31
0.0
  0
ARC
  5
9F7F
  8
DANMEN
  6
CONTINUOUS
 10
388.85694699999999
 20
241.20515199999991
 30
0.0
 40
0.5
 50
90.0
 51
180.0
  0
LINE
  5
9F80
  8
DANMEN
  6
CONTINUOUS
 10
388.35694699999999
 20
241.20515199999991
 30
0.0
 11
388.35694699999999
 21
239.30515199999991
 31
0.0
  0
LINE
  5
9F81
  8
DANMEN
  6
CONTINUOUS
 10
388.85694699999999
 20
241.705152
 30
0.0
 11
390.05694699999998
 21
241.705152
 31
0.0
  0
LINE
  5
9F83
  8
DANMEN
  6
CONTINUOUS
 10
389.5069509999999
 20
240.50515200000001
 30
0.0
 11
389.5069509999999
 21
239.9051519999999
 31
0.0
  0
ARC
  5
9F85
  8
DANMEN
  6
CONTINUOUS
 10
389.70695000000001
 20
239.9051519999999
 30
0.0
 40
0.2
 50
180.0000189999999
 51
270.000001
  0
ARC
  5
9F87
  8
DANMEN
  6
CONTINUOUS
 10
389.70695000000001
 20
240.50515200000001
 30
0.0
 40
0.2
 50
89.999981999999974
 51
180.0000189999999
  0
LINE
  5
9F8C
  8
DANMEN
  6
CONTINUOUS
 10
392.69261599999987
 20
244.12457499999991
 30
0.0
 11
390.83635299999992
 21
242.46848899999989
 31
0.0
  0
LINE
  5
9F8D
  8
DANMEN
  6
CONTINUOUS
 10
396.35695099999992
 20
243.449658
 30
0.0
 11
396.35695099999992
 21
241.705152
 31
0.0
  0
ARC
  5
9F8E
  8
DANMEN
  6
CONTINUOUS
 10
394.65694799999989
 20
241.20515199999991
 30
0.0
 40
0.5
 50
90.0
 51
180.0
  0
LINE
  5
9F8F
  8
DANMEN
  6
CONTINUOUS
 10
394.156948
 20
240.90515199999999
 30
0.0
 11
395.35694699999999
 21
240.90515199999999
 31
0.0
  0
LINE
  5
9F90
  8
DANMEN
  6
CONTINUOUS
 10
394.0069509999999
 20
239.705152
 30
0.0
 11
395.0069529999999
 21
239.705152
 31
0.0
  0
LINE
  5
9F91
  8
DANMEN
  6
CONTINUOUS
 10
394.0069509999999
 20
240.705152
 30
0.0
 11
395.0069529999999
 21
240.705152
 31
0.0
  0
LINE
  5
9F92
  8
DANMEN
  6
CONTINUOUS
 10
394.0069509999999
 20
241.705152
 30
0.0
 11
396.35695099999992
 21
241.705152
 31
0.0
  0
LINE
  5
9F97
  8
DANMEN
  6
CONTINUOUS
 10
394.156948
 20
241.20515199999991
 30
0.0
 11
394.156948
 21
240.90515199999999
 31
0.0
  0
LINE
  5
9F98
  8
DANMEN
  6
CONTINUOUS
 10
390.55694699999998
 20
241.20515199999991
 30
0.0
 11
390.55694699999998
 21
240.90515199999999
 31
0.0
  0
LINE
  5
9F9D
  8
DANMEN
  6
CONTINUOUS
 10
393.206951
 20
240.50515200000001
 30
0.0
 11
394.0069509999999
 21
239.705152
 31
0.0
  0
LINE
  5
9F9E
  8
DANMEN
  6
CONTINUOUS
 10
391.5069509999999
 20
240.50515200000001
 30
0.0
 11
390.70695099999989
 21
239.705152
 31
0.0
  0
LINE
  5
9FA1
  8
DANMEN
  6
CONTINUOUS
 10
390.70695099999989
 20
241.705152
 30
0.0
 11
390.70695099999989
 21
240.705152
 31
0.0
  0
LINE
  5
9FA2
  8
DANMEN
  6
CONTINUOUS
 10
394.0069509999999
 20
241.705152
 30
0.0
 11
394.0069509999999
 21
240.705152
 31
0.0
  0
LINE
  5
9FA7
  8
DANMEN
  6
CONTINUOUS
 10
391.5069529999999
 20
240.50515200000001
 30
0.0
 11
393.20695000000001
 21
240.50515200000001
 31
0.0
  0
LINE
  5
9FAC
  8
DANMEN
  6
CONTINUOUS
 10
395.35694699999999
 20
240.90515199999999
 30
0.0
 11
395.35694699999999
 21
239.30515199999991
 31
0.0
  0
LINE
  5
9FAD
  8
DANMEN
  6
CONTINUOUS
 10
394.65694799999989
 20
241.705152
 30
0.0
 11
395.85694699999999
 21
241.705152
 31
0.0
  0
ARC
  5
9FAF
  8
DANMEN
  6
CONTINUOUS
 10
395.85694699999999
 20
238.70515199999991
 30
0.0
 40
0.5
 50
270.0
 51
0.0
  0
ARC
  5
9FB1
  8
DANMEN
  6
CONTINUOUS
 10
395.85694699999999
 20
241.20515199999991
 30
0.0
 40
0.5
 50
0.0
 51
90.0
  0
LINE
  5
9FB2
  8
DANMEN
  6
CONTINUOUS
 10
396.35694699999999
 20
241.20515199999991
 30
0.0
 11
396.35694699999999
 21
238.70515199999991
 31
0.0
  0
LINE
  5
9FB3
  8
DANMEN
  6
CONTINUOUS
 10
395.206951
 20
240.50515200000001
 30
0.0
 11
395.206951
 21
239.9051519999999
 31
0.0
  0
ARC
  5
9FB5
  8
DANMEN
  6
CONTINUOUS
 10
395.0069529999999
 20
240.50515200000001
 30
0.0
 40
0.2
 50
0.0
 51
89.999981999999974
  0
ARC
  5
9FB7
  8
DANMEN
  6
CONTINUOUS
 10
395.0069529999999
 20
239.9051519999999
 30
0.0
 40
0.2
 50
270.0000179999999
 51
0.0
  0
LINE
  5
9FBB
  8
DANMEN
  6
CONTINUOUS
 10
395.2358089999999
 20
243.09572499999999
 30
0.0
 11
392.69261599999987
 21
244.12457499999991
 31
0.0
  0
LINE
  5
9FBC
  8
DANMEN
  6
CONTINUOUS
 10
396.25211000000002
 20
243.54756499999991
 30
0.0
 11
391.60379599999999
 21
245.428043
 31
0.0
  0
ARC
  5
9FC0
  8
DANMEN
  6
CONTINUOUS
 10
391.802797
 20
244.26880499999999
 30
0.0
 40
0.2
 50
311.7381049999999
 51
67.974191000000005
  0
LINE
  5
9FC1
  8
DANMEN
  6
CONTINUOUS
 10
391.87780299999997
 20
244.45420799999999
 30
0.0
 11
391.30377599999991
 21
244.686431
 31
0.0
  0
LINE
  5
9FC4
  8
DANMEN
  6
CONTINUOUS
 10
391.93594200000001
 20
244.11956599999999
 30
0.0
 11
390.50349
 21
242.841587
 31
0.0
  0
ARC
  5
9FC6
  8
DANMEN
  6
CONTINUOUS
 10
391.45378599999992
 20
245.05723699999999
 30
0.0
 40
0.4
 50
67.974191000000005
 51
247.97419099999991
  0
ARC
  5
9FC8
  8
DANMEN
  6
CONTINUOUS
 10
396.17710499999993
 20
243.36216200000001
 30
0.0
 40
0.2
 50
25.943161
 51
67.974191000000005
  0
ARC
  5
9FCB
  8
DANMEN
  6
CONTINUOUS
 10
395.42121200000003
 20
243.02072000000001
 30
0.0
 40
0.2
 50
47.258366000000002
 51
157.97419099999991
  0
LINE
  5
9FCC
  8
DANMEN
  6
CONTINUOUS
 10
395.55695099999991
 20
243.1676049999999
 30
0.0
 11
395.55695099999991
 21
242.50515200000001
 31
0.0
  0
LINE
  5
9FCE
  8
DANMEN
  6
CONTINUOUS
 10
463.35694699999999
 20
182.70515199999991
 30
0.0
 11
491.35694699999988
 21
182.70515199999991
 31
0.0
  0
LINE
  5
9FCF
  8
DANMEN
  6
CONTINUOUS
 10
504.35694699999999
 20
184.355152
 30
0.0
 11
492.55694699999998
 21
184.355152
 31
0.0
  0
LINE
  5
9FD0
  8
DANMEN
  6
CONTINUOUS
 10
493.00694699999991
 20
188.40515500000001
 30
0.0
 11
497.85694699999999
 21
188.40515500000001
 31
0.0
  0
LINE
  5
9FD1
  8
DANMEN
  6
CONTINUOUS
 10
491.85694799999999
 20
189.60515499999991
 30
0.0
 11
498.35694699999988
 21
189.60515499999991
 31
0.0
  0
LINE
  5
9FD2
  8
DANMEN
  6
CONTINUOUS
 10
492.55694699999998
 20
184.35515499999991
 30
0.0
 11
492.55694699999998
 21
186.355155
 31
0.0
  0
LINE
  5
9FD3
  8
DANMEN
  6
CONTINUOUS
 10
491.35694699999988
 20
183.205152
 30
0.0
 11
491.35694699999988
 21
189.105155
 31
0.0
  0
ARC
  5
9FD5
  8
DANMEN
  6
CONTINUOUS
 10
491.85694699999999
 20
183.205152
 30
0.0
 40
0.5
 50
179.999999
 51
269.99998099999999
  0
LINE
  5
9FD8
  8
DANMEN
  6
CONTINUOUS
 10
492.55694699999998
 20
186.355155
 30
0.0
 11
493.00694699999991
 21
186.355155
 31
0.0
  0
ARC
  5
9FDA
  8
DANMEN
  6
CONTINUOUS
 10
491.85694699999999
 20
189.105155
 30
0.0
 40
0.5
 50
90.0
 51
179.99998199999999
  0
LINE
  5
9FDE
  8
DANMEN
  6
CONTINUOUS
 10
493.00694699999991
 20
186.355155
 30
0.0
 11
493.00694699999991
 21
188.40515500000001
 31
0.0
  0
ARC
  5
9FDF
  8
DANMEN
  6
CONTINUOUS
 10
504.85694699999999
 20
189.105155
 30
0.0
 40
0.5
 50
0.0
 51
180.0
  0
LINE
  5
9FE0
  8
DANMEN
  6
CONTINUOUS
 10
504.35694699999999
 20
184.355152
 30
0.0
 11
504.35694699999999
 21
189.105155
 31
0.0
  0
ARC
  5
9FE3
  8
DANMEN
  6
CONTINUOUS
 10
497.85694699999999
 20
188.90515499999989
 30
0.0
 40
0.5
 50
270.0
 51
0.0
  0
LINE
  5
9FE5
  8
DANMEN
  6
CONTINUOUS
 10
498.35694699999988
 20
188.90515499999989
 30
0.0
 11
498.35694699999988
 21
189.60515499999991
 31
0.0
  0
LINE
  5
9FE7
  8
DANMEN
  6
CONTINUOUS
 10
505.35694699999999
 20
184.355152
 30
0.0
 11
505.35694699999999
 21
189.105155
 31
0.0
  0
LINE
  5
9FEA
  8
DANMEN
  6
CONTINUOUS
 10
463.35694699999999
 20
234.70515599999999
 30
0.0
 11
491.35694699999988
 21
234.70515599999999
 31
0.0
  0
LINE
  5
9FEB
  8
DANMEN
  6
CONTINUOUS
 10
491.85694699999999
 20
227.605154
 30
0.0
 11
498.35694699999988
 21
227.605154
 31
0.0
  0
LINE
  5
9FEC
  8
DANMEN
  6
CONTINUOUS
 10
493.30694699999992
 20
232.75515399999989
 30
0.0
 11
504.35694699999999
 21
232.75515399999989
 31
0.0
  0
LINE
  5
9FED
  8
DANMEN
  6
CONTINUOUS
 10
493.30694699999992
 20
228.80515399999999
 30
0.0
 11
497.85694699999999
 21
228.80515399999999
 31
0.0
  0
LINE
  5
9FEE
  8
DANMEN
  6
CONTINUOUS
 10
491.35694699999988
 20
234.20515399999991
 30
0.0
 11
491.35694699999988
 21
228.10515399999991
 31
0.0
  0
LINE
  5
9FEF
  8
DANMEN
  6
CONTINUOUS
 10
493.30694699999992
 20
232.75515399999989
 30
0.0
 11
493.30694699999992
 21
228.80515399999999
 31
0.0
  0
ARC
  5
9FF0
  8
DANMEN
  6
CONTINUOUS
 10
491.85694699999999
 20
228.10515399999991
 30
0.0
 40
0.5
 50
180.0
 51
270.0
  0
ARC
  5
9FF6
  8
DANMEN
  6
CONTINUOUS
 10
491.85694699999999
 20
234.20515399999991
 30
0.0
 40
0.5
 50
90.0
 51
180.0
  0
ARC
  5
9FF9
  8
DANMEN
  6
CONTINUOUS
 10
504.85694699999999
 20
228.10515399999991
 30
0.0
 40
0.5
 50
180.0
 51
0.0
  0
LINE
  5
9FFA
  8
DANMEN
  6
CONTINUOUS
 10
504.35694699999999
 20
232.75515399999989
 30
0.0
 11
504.35694699999999
 21
228.10515399999991
 31
0.0
  0
LINE
  5
9FFB
  8
DANMEN
  6
CONTINUOUS
 10
498.35694699999988
 20
228.30515399999999
 30
0.0
 11
498.35694699999988
 21
227.605154
 31
0.0
  0
ARC
  5
9FFD
  8
DANMEN
  6
CONTINUOUS
 10
497.85694699999999
 20
228.30515399999999
 30
0.0
 40
0.5
 50
0.0
 51
90.0
  0
LINE
  5
A001
  8
DANMEN
  6
CONTINUOUS
 10
505.35694699999999
 20
232.75515399999989
 30
0.0
 11
505.35694699999999
 21
228.10515399999991
 31
0.0
  0
LINE
  5
A003
  8
DANMEN
  6
CONTINUOUS
 10
505.35694699999999
 20
232.75515399999989
 30
0.0
 11
513.05694699999992
 21
232.75515399999989
 31
0.0
  0
LINE
  5
A006
  8
DANMEN
  6
CONTINUOUS
 10
523.35694699999988
 20
184.355152
 30
0.0
 11
523.35694699999988
 21
223.90515199999999
 31
0.0
  0
LINE
  5
A007
  8
DANMEN
  6
CONTINUOUS
 10
525.00694699999985
 20
193.00515799999991
 30
0.0
 11
525.00694699999985
 21
206.20515199999991
 31
0.0
  0
LINE
  5
A008
  8
DANMEN
  6
CONTINUOUS
 10
523.35694599999999
 20
206.20515599999999
 30
0.0
 11
523.35694799999987
 21
199.20515599999999
 31
0.0
  0
LINE
  5
A009
  8
DANMEN
  6
CONTINUOUS
 10
523.65694599999995
 20
206.20515599999999
 30
0.0
 11
523.65694800000006
 21
199.20515599999999
 31
0.0
  0
LINE
  5
A00A
  8
DANMEN
  6
CONTINUOUS
 10
543.35694599999999
 20
204.70515700000001
 30
0.0
 11
543.35694699999999
 21
200.70516099999989
 31
0.0
  0
LINE
  5
A00B
  8
DANMEN
  6
CONTINUOUS
 10
525.38445999999988
 20
204.47765399999989
 30
0.0
 11
525.38446099999987
 21
200.932659
 31
0.0
  0
LINE
  5
A00C
  8
DANMEN
  6
DASHED
 10
524.57182299999999
 20
201.56016699999989
 30
0.0
 11
525.05581399999994
 21
202.4704219999999
 31
0.0
  0
LINE
  5
A00D
  8
DANMEN
  6
CONTINUOUS
 10
526.6319219999998
 20
204.70515499999991
 30
0.0
 11
526.63192300000003
 21
200.70515900000001
 31
0.0
  0
LINE
  5
A00E
  8
DANMEN
  6
CONTINUOUS
 10
525.85694699999999
 20
189.70515199999991
 30
0.0
 11
554.85694699999999
 21
189.70515199999991
 31
0.0
  0
LINE
  5
A00F
  8
DANMEN
  6
CONTINUOUS
 10
542.00694699999985
 20
191.355152
 30
0.0
 11
553.70694700000001
 21
191.355152
 31
0.0
  0
LINE
  5
A010
  8
DANMEN
  6
CONTINUOUS
 10
525.85694699999999
 20
191.355152
 30
0.0
 11
538.35694699999999
 21
191.355152
 31
0.0
  0
LINE
  5
A011
  8
DANMEN
  6
CONTINUOUS
 10
525.00694699999985
 20
193.00515200000001
 30
0.0
 11
533.75694699999997
 21
193.00515200000001
 31
0.0
  0
LINE
  5
A012
  8
DANMEN
  6
CONTINUOUS
 10
525.35694699999999
 20
191.50515200000001
 30
0.0
 11
537.35694699999988
 21
191.50515200000001
 31
0.0
  0
LINE
  5
A013
  8
DANMEN
  6
CONTINUOUS
 10
526.63192300000003
 20
200.70515800000001
 30
0.0
 11
543.356944
 21
200.70516000000001
 31
0.0
  0
LINE
  5
A014
  8
DANMEN
  6
CONTINUOUS
 10
526.63192300000003
 20
201.084159
 30
0.0
 11
543.356943
 21
201.08416099999999
 31
0.0
  0
LINE
  5
A015
  8
DANMEN
  6
CONTINUOUS
 10
525.35694699999999
 20
190.85515199999989
 30
0.0
 11
525.35694699999999
 21
190.205152
 31
0.0
  0
LINE
  5
A016
  8
DANMEN
  6
CONTINUOUS
 10
525.35694699999999
 20
183.70515199999991
 30
0.0
 11
525.35694699999999
 21
191.50515799999999
 31
0.0
  0
ARC
  5
A017
  8
DANMEN
  6
CONTINUOUS
 10
524.35694699999988
 20
183.70515199999991
 30
0.0
 40
1.0
 50
270.0
 51
0.0
  0
ARC
  5
A01A
  8
DANMEN
  6
CONTINUOUS
 10
525.85694699999999
 20
190.205152
 30
0.0
 40
0.5
 50
180.0
 51
270.0
  0
ARC
  5
A01E
  8
DANMEN
  6
CONTINUOUS
 10
525.85694699999999
 20
190.85515199999989
 30
0.0
 40
0.5
 50
90.0
 51
180.0
  0
LINE
  5
A022
  8
DANMEN
  6
CONTINUOUS
 10
526.63191299999994
 20
200.70516799999999
 30
0.0
 11
525.38445200000001
 21
200.93266899999989
 31
0.0
  0
LINE
  5
A023
  8
DANMEN
  6
CONTINUOUS
 10
526.63191299999994
 20
201.0841659999999
 30
0.0
 11
525.38445200000001
 21
200.9326659999999
 31
0.0
  0
LINE
  5
A024
  8
DANMEN
  6
CONTINUOUS
 10
523.35694799999987
 20
199.20515599999999
 30
0.0
 11
523.65694800000006
 21
199.20515599999999
 31
0.0
  0
LINE
  5
A025
  8
DANMEN
  6
CONTINUOUS
 10
523.65694800000006
 20
199.20515599999999
 30
0.0
 11
525.384456
 21
200.9326639999999
 31
0.0
  0
LINE
  5
A026
  8
DANMEN
  6
DASHED
 10
523.35694699999988
 20
200.95445100000001
 30
0.0
 11
524.57182299999999
 21
201.5601659999999
 31
0.0
  0
LINE
  5
A027
  8
DANMEN
  6
CONTINUOUS
 10
538.82104900000002
 20
191.855152
 30
0.0
 11
537.85694699999999
 21
191.855152
 31
0.0
  0
LINE
  5
A028
  8
DANMEN
  6
CONTINUOUS
 10
538.82104900000002
 20
197.855152
 30
0.0
 11
537.85694699999999
 21
197.855152
 31
0.0
  0
LINE
  5
A029
  8
DANMEN
  6
CONTINUOUS
 10
534.95694700000001
 20
192.705152
 30
0.0
 11
534.95694700000001
 21
197.00515200000001
 31
0.0
  0
LINE
  5
A02A
  8
DANMEN
  6
CONTINUOUS
 10
537.05694699999992
 20
196.00515200000001
 30
0.0
 11
537.05694699999992
 21
197.00515200000001
 31
0.0
  0
ARC
  5
A02B
  8
DANMEN
  6
CONTINUOUS
 10
537.35694699999988
 20
196.50515200000001
 30
0.0
 40
0.5
 50
270.0
 51
0.0
  0
LINE
  5
A02C
  8
DANMEN
  6
CONTINUOUS
 10
533.75694699999997
 20
193.00515200000001
 30
0.0
 11
533.75694699999997
 21
197.20515199999991
 31
0.0
  0
LINE
  5
A02D
  8
DANMEN
  6
CONTINUOUS
 10
537.85694699999999
 20
197.855152
 30
0.0
 11
537.85694699999999
 21
191.855152
 31
0.0
  0
LINE
  5
A02E
  8
DANMEN
  6
CONTINUOUS
 10
536.85694699999988
 20
196.65515199999999
 30
0.0
 11
536.85694699999988
 21
195.855152
 31
0.0
  0
LINE
  5
A02F
  8
DANMEN
  6
CONTINUOUS
 10
535.85694699999988
 20
196.65515199999999
 30
0.0
 11
535.85694699999988
 21
196.00515200000001
 31
0.0
  0
LINE
  5
A033
  8
DANMEN
  6
CONTINUOUS
 10
534.95694700000001
 20
192.705152
 30
0.0
 11
537.05694699999992
 21
192.705152
 31
0.0
  0
ARC
  5
A037
  8
DANMEN
  6
CONTINUOUS
 10
537.35694699999988
 20
193.205152
 30
0.0
 40
0.5
 50
0.0
 51
90.0
  0
LINE
  5
A039
  8
DANMEN
  6
CONTINUOUS
 10
537.05694699999992
 20
192.705152
 30
0.0
 11
537.05694699999992
 21
193.70515199999991
 31
0.0
  0
LINE
  5
A03A
  8
DANMEN
  6
CONTINUOUS
 10
537.05694699999992
 20
196.00515200000001
 30
0.0
 11
537.35694699999988
 21
196.00515200000001
 31
0.0
  0
LINE
  5
A03B
  8
DANMEN
  6
CONTINUOUS
 10
537.05694699999992
 20
193.70515199999991
 30
0.0
 11
537.35694699999988
 21
193.70515199999991
 31
0.0
  0
ARC
  5
A03D
  8
DANMEN
  6
CONTINUOUS
 10
537.35694699999988
 20
192.00515200000001
 30
0.0
 40
0.5
 50
270.0
 51
0.0
  0
LINE
  5
A03E
  8
DANMEN
  6
CONTINUOUS
 10
537.85694699999999
 20
192.00515200000001
 30
0.0
 11
537.85694699999999
 21
193.205152
 31
0.0
  0
LINE
  5
A046
  8
DANMEN
  6
CONTINUOUS
 10
536.45694800000001
 20
195.205153
 30
0.0
 11
536.45694800000001
 21
194.50515300000001
 31
0.0
  0
LINE
  5
A048
  8
DANMEN
  6
CONTINUOUS
 10
537.85694699999999
 20
193.855152
 30
0.0
 11
536.85694699999988
 21
193.855152
 31
0.0
  0
LINE
  5
A049
  8
DANMEN
  6
CONTINUOUS
 10
536.85694699999988
 20
193.855152
 30
0.0
 11
536.85694699999988
 21
193.05515199999999
 31
0.0
  0
LINE
  5
A04A
  8
DANMEN
  6
CONTINUOUS
 10
537.85694699999999
 20
195.855152
 30
0.0
 11
536.85694699999988
 21
195.855152
 31
0.0
  0
LINE
  5
A04B
  8
DANMEN
  6
CONTINUOUS
 10
536.45694800000001
 20
194.50515300000001
 30
0.0
 11
535.85694699999988
 21
193.70515199999991
 31
0.0
  0
LINE
  5
A04C
  8
DANMEN
  6
CONTINUOUS
 10
535.85694699999988
 20
196.00515200000001
 30
0.0
 11
536.45694800000001
 21
195.20515199999991
 31
0.0
  0
LINE
  5
A04F
  8
DANMEN
  6
CONTINUOUS
 10
535.85694699999988
 20
193.70515199999991
 30
0.0
 11
535.85694699999988
 21
193.05515199999999
 31
0.0
  0
ARC
  5
A051
  8
DANMEN
  6
CONTINUOUS
 10
536.65694699999995
 20
193.05515199999999
 30
0.0
 40
0.2
 50
269.999999
 51
359.99998099999988
  0
ARC
  5
A053
  8
DANMEN
  6
CONTINUOUS
 10
536.05694699999992
 20
193.05515199999999
 30
0.0
 40
0.2
 50
180.0
 51
269.99998199999987
  0
LINE
  5
A055
  8
DANMEN
  6
CONTINUOUS
 10
536.65694699999995
 20
192.855152
 30
0.0
 11
536.05694699999992
 21
192.855152
 31
0.0
  0
ARC
  5
A056
  8
DANMEN
  6
CONTINUOUS
 10
534.75694699999985
 20
197.20515199999991
 30
0.0
 40
1.0
 50
90.0
 51
180.0
  0
LINE
  5
A05A
  8
DANMEN
  6
CONTINUOUS
 10
534.95694700000001
 20
197.00515200000001
 30
0.0
 11
537.05694699999992
 21
197.00515200000001
 31
0.0
  0
LINE
  5
A05B
  8
DANMEN
  6
CONTINUOUS
 10
537.85694699999999
 20
196.50515200000001
 30
0.0
 11
537.85694699999999
 21
197.20515199999991
 31
0.0
  0
ARC
  5
A05D
  8
DANMEN
  6
CONTINUOUS
 10
536.85694699999988
 20
197.20515199999991
 30
0.0
 40
1.0
 50
0.0
 51
90.0
  0
LINE
  5
A05E
  8
DANMEN
  6
CONTINUOUS
 10
534.75694699999985
 20
198.20515199999991
 30
0.0
 11
536.85694699999988
 21
198.20515199999991
 31
0.0
  0
ARC
  5
A05F
  8
DANMEN
  6
CONTINUOUS
 10
536.65694699999995
 20
196.65515199999999
 30
0.0
 40
0.2
 50
359.99998099999988
 51
90.000018000000011
  0
ARC
  5
A061
  8
DANMEN
  6
CONTINUOUS
 10
536.05694699999992
 20
196.65515199999999
 30
0.0
 40
0.2
 50
90.000018000000011
 51
180.0
  0
LINE
  5
A063
  8
DANMEN
  6
CONTINUOUS
 10
536.65694699999995
 20
196.855152
 30
0.0
 11
536.05694699999992
 21
196.855152
 31
0.0
  0
LINE
  5
A064
  8
DANMEN
  6
CONTINUOUS
 10
538.55694699999992
 20
197.15515199999999
 30
0.0
 11
538.55694699999992
 21
192.55515199999991
 31
0.0
  0
ARC
  5
A065
  8
DANMEN
  6
CONTINUOUS
 10
535.35694699999999
 20
194.855152
 30
0.0
 40
5.0
 50
330.000001
 51
29.999998999999999
  0
ARC
  5
A066
  8
DANMEN
  6
CONTINUOUS
 10
535.35694699999999
 20
194.855152
 30
0.0
 40
4.2999999999999989
 50
331.72628700000001
 51
28.273713000000001
  0
LINE
  5
A067
  8
DANMEN
  6
CONTINUOUS
 10
538.35694699999999
 20
191.355152
 30
0.0
 11
538.35694699999999
 21
190.80515199999991
 31
0.0
  0
LINE
  5
A068
  8
DANMEN
  6
CONTINUOUS
 10
538.35694699999999
 20
190.80515199999991
 30
0.0
 11
540.35694699999988
 21
190.80515199999991
 31
0.0
  0
LINE
  5
A06D
  8
DANMEN
  6
CONTINUOUS
 10
538.70358799999985
 20
192.55515199999991
 30
0.0
 11
538.55694699999992
 21
192.55515199999991
 31
0.0
  0
ARC
  5
A070
  8
DANMEN
  6
CONTINUOUS
 10
538.82104900000002
 20
192.855152
 30
0.0
 40
1.0
 50
270.0
 51
330.000001
  0
ARC
  5
A072
  8
DANMEN
  6
CONTINUOUS
 10
538.70358799999985
 20
193.05515199999999
 30
0.0
 40
0.5
 50
270.0
 51
331.72628700000001
  0
LINE
  5
A074
  8
DANMEN
  6
CONTINUOUS
 10
538.70358799999985
 20
197.15515199999999
 30
0.0
 11
538.55694699999992
 21
197.15515199999999
 31
0.0
  0
ARC
  5
A076
  8
DANMEN
  6
CONTINUOUS
 10
538.82104900000002
 20
196.855152
 30
0.0
 40
1.0
 50
29.999998999999999
 51
90.0
  0
ARC
  5
A078
  8
DANMEN
  6
CONTINUOUS
 10
538.70358799999985
 20
196.65515199999999
 30
0.0
 40
0.5
 50
28.273713000000001
 51
90.0
  0
LINE
  5
A07A
  8
DANMEN
  6
CONTINUOUS
 10
555.35694699999999
 20
195.20515199999991
 30
0.0
 11
555.35694699999999
 21
190.205152
 31
0.0
  0
ARC
  5
A07B
  8
DANMEN
  6
CONTINUOUS
 10
554.85694699999999
 20
190.205152
 30
0.0
 40
0.5
 50
270.0
 51
0.0
  0
LINE
  5
A07D
  8
DANMEN
  6
CONTINUOUS
 10
554.20694700000001
 20
195.705152
 30
0.0
 11
554.85694699999999
 21
195.705152
 31
0.0
  0
LINE
  5
A07E
  8
DANMEN
  6
CONTINUOUS
 10
553.70694700000001
 20
195.20515199999991
 30
0.0
 11
553.70694700000001
 21
191.355152
 31
0.0
  0
ARC
  5
A07F
  8
DANMEN
  6
CONTINUOUS
 10
554.20694700000001
 20
195.20515199999991
 30
0.0
 40
0.5
 50
90.0
 51
180.0
  0
ARC
  5
A082
  8
DANMEN
  6
CONTINUOUS
 10
554.85694699999999
 20
195.20515199999991
 30
0.0
 40
0.5
 50
0.0
 51
90.0
  0
LINE
  5
A084
  8
DANMEN
  6
CONTINUOUS
 10
519.35694699999988
 20
225.205152
 30
0.0
 11
517.75888899999995
 21
224.88553999999999
 31
0.0
  0
LINE
  5
A085
  8
DANMEN
  6
CONTINUOUS
 10
525.00694699999985
 20
207.40515199999999
 30
0.0
 11
525.00694699999985
 21
233.05515800000001
 31
0.0
  0
ARC
  5
A086
  8
DANMEN
  6
CONTINUOUS
 10
520.93379000000004
 20
225.605154
 30
0.0
 40
0.5
 50
212.05460999999991
 51
270.0
  0
ARC
  5
A087
  8
DANMEN
  6
CONTINUOUS
 10
521.15694800000006
 20
225.605154
 30
0.0
 40
0.5
 50
270.0
 51
0.0
  0
LINE
  5
A088
  8
DANMEN
  6
CONTINUOUS
 10
525.00694699999985
 20
207.40515199999999
 30
0.0
 11
539.65694800000006
 21
207.40515199999999
 31
0.0
  0
LINE
  5
A089
  8
DANMEN
  6
CONTINUOUS
 10
525.00694699999985
 20
206.20515199999991
 30
0.0
 11
539.65694800000006
 21
206.20515199999991
 31
0.0
  0
LINE
  5
A08A
  8
DANMEN
  6
CENTER
 10
522.317093
 20
202.70515599999999
 30
0.0
 11
543.995497
 21
202.70515599999999
 31
0.0
  0
LINE
  5
A08B
  8
DANMEN
  6
CONTINUOUS
 10
526.6319219999998
 20
204.70515499999991
 30
0.0
 11
543.356944
 21
204.70515700000001
 31
0.0
  0
LINE
  5
A08C
  8
DANMEN
  6
CONTINUOUS
 10
526.63192300000003
 20
204.326154
 30
0.0
 11
543.356943
 21
204.32615599999991
 31
0.0
  0
LINE
  5
A08D
  8
DANMEN
  6
CONTINUOUS
 10
526.63191399999994
 20
204.32614699999999
 30
0.0
 11
525.38445200000001
 21
204.477645
 31
0.0
  0
LINE
  5
A08E
  8
DANMEN
  6
CONTINUOUS
 10
526.63191399999994
 20
204.70514199999991
 30
0.0
 11
525.38445100000001
 21
204.47763999999989
 31
0.0
  0
LINE
  5
A093
  8
DANMEN
  6
CONTINUOUS
 10
523.35694599999999
 20
206.20515599999999
 30
0.0
 11
523.65694599999995
 21
206.20515599999999
 31
0.0
  0
LINE
  5
A094
  8
DANMEN
  6
CONTINUOUS
 10
523.65694500000006
 20
206.20515599999999
 30
0.0
 11
525.384456
 21
204.47764699999991
 31
0.0
  0
ARC
  5
A095
  8
DANMEN
  6
DASHED
 10
524.61434999999994
 20
202.70515700000001
 30
0.0
 40
0.5
 50
332.00001299999991
 51
28.000077999999998
  0
LINE
  5
A096
  8
DANMEN
  6
DASHED
 10
524.57182199999988
 20
203.850145
 30
0.0
 11
525.05581299999994
 21
202.9398919999999
 31
0.0
  0
LINE
  5
A097
  8
DANMEN
  6
DASHED
 10
523.35694699999988
 20
204.45586299999999
 30
0.0
 11
524.57182199999988
 21
203.8501489999999
 31
0.0
  0
LINE
  5
A098
  8
DANMEN
  6
CONTINUOUS
 10
517.35694699999999
 20
223.90515199999999
 30
0.0
 11
523.35694699999988
 21
223.90515199999999
 31
0.0
  0
ARC
  5
A099
  8
DANMEN
  6
CONTINUOUS
 10
517.85694699999999
 20
224.39525
 30
0.0
 40
0.5
 50
101.3099319999999
 51
180.0
  0
LINE
  5
A09A
  8
DANMEN
  6
CONTINUOUS
 10
517.35694699999999
 20
224.39525
 30
0.0
 11
517.35694699999999
 21
223.90515199999999
 31
0.0
  0
ARC
  5
A0A0
  8
DANMEN
  6
CONTINUOUS
 10
539.65694800000006
 20
206.90515199999999
 30
0.0
 40
0.5
 50
0.0
 51
90.0
  0
ARC
  5
A0A2
  8
DANMEN
  6
CONTINUOUS
 10
539.65694800000006
 20
206.705152
 30
0.0
 40
0.5
 50
270.0
 51
0.0
  0
LINE
  5
A0A3
  8
DANMEN
  6
CONTINUOUS
 10
540.15694800000006
 20
206.705152
 30
0.0
 11
540.15694800000006
 21
206.90515199999999
 31
0.0
  0
LINE
  5
A0A4
  8
DANMEN
  6
CONTINUOUS
 10
515.85694699999988
 20
234.70515800000001
 30
0.0
 11
539.85693600000002
 21
234.70515800000001
 31
0.0
  0
LINE
  5
A0A5
  8
DANMEN
  6
CONTINUOUS
 10
525.00694699999985
 20
233.05515800000001
 30
0.0
 11
539.15693599999997
 21
233.05515800000001
 31
0.0
  0
LINE
  5
A0A6
  8
DANMEN
  6
CONTINUOUS
 10
519.35694699999988
 20
225.205152
 30
0.0
 11
523.35694699999988
 21
225.205152
 31
0.0
  0
LINE
  5
A0A7
  8
DANMEN
  6
CONTINUOUS
 10
516.85694699999999
 20
233.05515800000001
 30
0.0
 11
523.35694699999988
 21
233.05515800000001
 31
0.0
  0
LINE
  5
A0A8
  8
DANMEN
  6
CONTINUOUS
 10
517.55694699999992
 20
232.505154
 30
0.0
 11
521.65694800000006
 21
225.9576769999999
 31
0.0
  0
LINE
  5
A0A9
  8
DANMEN
  6
CONTINUOUS
 10
517.33811100000003
 20
230.40515400000001
 30
0.0
 11
520.51001900000006
 21
225.33978999999991
 31
0.0
  0
LINE
  5
A0AA
  8
DANMEN
  6
CONTINUOUS
 10
514.55694699999981
 20
230.40515400000001
 30
0.0
 11
517.33811100000003
 21
230.40515400000001
 31
0.0
  0
LINE
  5
A0AF
  8
DANMEN
  6
CONTINUOUS
 10
520.93379000000004
 20
225.105154
 30
0.0
 11
521.15694800000006
 21
225.105154
 31
0.0
  0
LINE
  5
A0B0
  8
DANMEN
  6
CONTINUOUS
 10
521.65694800000006
 20
225.9576769999999
 30
0.0
 11
521.65694800000006
 21
225.605154
 31
0.0
  0
ARC
  5
A0B5
  8
DANMEN
  6
CONTINUOUS
 10
515.85694699999988
 20
234.20515800000001
 30
0.0
 40
0.5
 50
90.0
 51
180.0
  0
LINE
  5
A0B6
  8
DANMEN
  6
CONTINUOUS
 10
515.35694699999988
 20
232.51417499999991
 30
0.0
 11
515.35694699999988
 21
234.20515800000001
 31
0.0
  0
LINE
  5
A0B8
  8
DANMEN
  6
CONTINUOUS
 10
516.55694699999992
 20
231.70515800000001
 30
0.0
 11
516.35694699999988
 21
231.70515800000001
 31
0.0
  0
LINE
  5
A0B9
  8
DANMEN
  6
CONTINUOUS
 10
516.85694699999999
 20
233.05515800000001
 30
0.0
 11
516.85694699999999
 21
232.00515799999991
 31
0.0
  0
ARC
  5
A0BA
  8
DANMEN
  6
CONTINUOUS
 10
516.55694699999992
 20
232.00515799999991
 30
0.0
 40
0.3
 50
270.0
 51
0.0
  0
LINE
  5
A0BD
  8
DANMEN
  6
CONTINUOUS
 10
516.35694699999988
 20
231.70515800000001
 30
0.0
 11
515.63334000000009
 21
232.06696199999999
 31
0.0
  0
ARC
  5
A0BE
  8
DANMEN
  6
CONTINUOUS
 10
515.85694699999988
 20
232.51417499999991
 30
0.0
 40
0.5
 50
180.0
 51
243.43494899999999
  0
LINE
  5
A0C1
  8
DANMEN
  6
CONTINUOUS
 10
515.35694699999988
 20
234.20515399999991
 30
0.0
 11
515.35694699999988
 21
232.75515399999989
 31
0.0
  0
ARC
  5
A0C2
  8
DANMEN
  6
CONTINUOUS
 10
514.85694699999988
 20
234.20515399999991
 30
0.0
 40
0.5
 50
0.0
 51
90.0
  0
LINE
  5
A0C5
  8
DANMEN
  6
CONTINUOUS
 10
515.05694699999992
 20
231.70515399999999
 30
0.0
 11
516.85694699999999
 21
231.70515399999999
 31
0.0
  0
LINE
  5
A0C6
  8
DANMEN
  6
CONTINUOUS
 10
515.05694699999992
 20
232.75515399999989
 30
0.0
 11
515.05694699999992
 21
231.70515399999999
 31
0.0
  0
LINE
  5
A0C8
  8
DANMEN
  6
CONTINUOUS
 10
515.05694699999992
 20
232.75515399999989
 30
0.0
 11
515.35694699999988
 21
232.75515399999989
 31
0.0
  0
LINE
  5
A0CA
  8
DANMEN
  6
CONTINUOUS
 10
517.05694699999992
 20
232.505154
 30
0.0
 11
516.85694699999999
 21
231.70515399999999
 31
0.0
  0
LINE
  5
A0CB
  8
DANMEN
  6
CONTINUOUS
 10
517.05694699999992
 20
232.505154
 30
0.0
 11
517.55694699999992
 21
232.505154
 31
0.0
  0
LINE
  5
A0CE
  8
DANMEN
  6
CONTINUOUS
 10
513.55694699999992
 20
232.255154
 30
0.0
 11
513.55694699999992
 21
231.40515400000001
 31
0.0
  0
LINE
  5
A0D3
  8
DANMEN
  6
CONTINUOUS
 10
523.35694699999988
 20
225.205152
 30
0.0
 11
523.35694699999988
 21
233.05515800000001
 31
0.0
  0
LINE
  5
A0D8
  8
DANMEN
  6
CONTINUOUS
 10
539.15693599999997
 20
231.705152
 30
0.0
 11
539.85693600000002
 21
231.705152
 31
0.0
  0
ARC
  5
A0D9
  8
DANMEN
  6
CONTINUOUS
 10
539.85693600000002
 20
232.205152
 30
0.0
 40
0.5
 50
270.0
 51
0.0
  0
LINE
  5
A0DC
  8
DANMEN
  6
CONTINUOUS
 10
539.15693599999997
 20
231.705152
 30
0.0
 11
539.15693599999997
 21
233.05515800000001
 31
0.0
  0
LINE
  5
A0DD
  8
DANMEN
  6
CONTINUOUS
 10
540.35693600000002
 20
232.205152
 30
0.0
 11
540.35693600000002
 21
234.20515800000001
 31
0.0
  0
ARC
  5
A0DE
  8
DANMEN
  6
CONTINUOUS
 10
539.85693600000002
 20
234.20515800000001
 30
0.0
 40
0.5
 50
0.0
 51
90.0
  0
LINE
  5
A0E0
  8
DANMEN
  6
CONTINUOUS
 10
497.85694699999999
 20
269.205152
 30
0.0
 11
540.35694699999988
 21
269.205152
 31
0.0
  0
LINE
  5
A0E1
  8
DANMEN
  6
CONTINUOUS
 10
497.85694699999999
 20
272.20515199999988
 30
0.0
 11
540.35694699999988
 21
272.20515199999988
 31
0.0
  0
LINE
  5
A0E2
  8
DANMEN
  6
CONTINUOUS
 10
463.35694699999999
 20
272.70515199999988
 30
0.0
 11
540.35694699999988
 21
272.70515199999988
 31
0.0
  0
LINE
  5
A0E3
  8
DANMEN
  6
CONTINUOUS
 10
525.35694699999999
 20
289.705152
 30
0.0
 11
509.85694699999999
 21
289.705152
 31
0.0
  0
LINE
  5
A0E4
  8
DANMEN
  6
CONTINUOUS
 10
463.35694699999999
 20
254.205152
 30
0.0
 11
540.35694699999988
 21
254.205152
 31
0.0
  0
LINE
  5
A0E5
  8
DANMEN
  6
CONTINUOUS
 10
463.35694699999999
 20
282.70515199999988
 30
0.0
 11
540.35694699999988
 21
282.70515199999988
 31
0.0
  0
LINE
  5
A0E6
  8
DANMEN
  6
CONTINUOUS
 10
383.35694699999999
 20
282.70515199999988
 30
0.0
 11
460.35694699999999
 21
282.70515199999988
 31
0.0
  0
LINE
  5
A0E7
  8
DANMEN
  6
CONTINUOUS
 10
383.35694699999999
 20
272.70515199999988
 30
0.0
 11
460.35694699999999
 21
272.70515199999988
 31
0.0
  0
LINE
  5
A0E8
  8
DANMEN
  6
CONTINUOUS
 10
413.85694699999999
 20
272.20515199999988
 30
0.0
 11
460.35694699999999
 21
272.20515199999988
 31
0.0
  0
LINE
  5
A0E9
  8
DANMEN
  6
CONTINUOUS
 10
413.85694699999999
 20
269.205152
 30
0.0
 11
460.35694699999999
 21
269.205152
 31
0.0
  0
LINE
  5
A0EA
  8
DANMEN
  6
CONTINUOUS
 10
383.35694699999999
 20
254.205152
 30
0.0
 11
460.35694699999999
 21
254.205152
 31
0.0
  0
LINE
  5
A0EB
  8
DANMEN
  6
CONTINUOUS
 10
413.85694699999999
 20
288.60515600000002
 30
0.0
 11
460.35694699999999
 21
288.60515600000002
 31
0.0
  0
LINE
  5
A0EC
  8
DANMEN
  6
CONTINUOUS
 10
413.85694699999999
 20
291.505156
 30
0.0
 11
460.35694699999999
 21
291.505156
 31
0.0
  0
LINE
  5
A0ED
  8
DANMEN
  6
CONTINUOUS
 10
413.85694699999999
 20
292.705152
 30
0.0
 11
460.35694699999999
 21
292.705152
 31
0.0
  0
LINE
  5
A0EE
  8
DANMEN
  6
CONTINUOUS
 10
418.14823699999999
 20
269.205152
 30
0.0
 11
413.85694699999999
 21
269.205152
 31
0.0
  0
LINE
  5
A0EF
  8
DANMEN
  6
CONTINUOUS
 10
418.14823699999999
 20
272.20515199999988
 30
0.0
 11
413.85694699999999
 21
272.20515199999988
 31
0.0
  0
ARC
  5
A0F0
  8
DANMEN
  6
CONTINUOUS
 10
389.20048899999989
 20
271.55766499999999
 30
0.0
 40
0.5
 50
80.537678000000014
 51
204.44395499999999
  0
LINE
  5
A0F1
  8
DANMEN
  6
CONTINUOUS
 10
389.28268800000001
 20
272.05086199999988
 30
0.0
 11
393.52134599999988
 21
271.34441900000002
 31
0.0
  0
LINE
  5
A0F2
  8
DANMEN
  6
CONTINUOUS
 10
383.35694699999999
 20
288.60515199999992
 30
0.0
 11
383.35694699999999
 21
270.00515200000001
 31
0.0
  0
LINE
  5
A0F3
  8
DANMEN
  6
CONTINUOUS
 10
413.85694699999999
 20
272.20515199999988
 30
0.0
 11
413.85694699999999
 21
269.205152
 31
0.0
  0
LINE
  5
A0F7
  8
DANMEN
  6
CONTINUOUS
 10
388.43858299999988
 20
268.21875799999992
 30
0.0
 11
393.52134599999988
 21
269.06588499999998
 31
0.0
  0
LINE
  5
A0F8
  8
DANMEN
  6
CONTINUOUS
 10
383.35694699999999
 20
270.00515200000001
 30
0.0
 11
388.580445
 21
270.00515200000001
 31
0.0
  0
LINE
  5
A0F9
  8
DANMEN
  6
CONTINUOUS
 10
383.35694699999999
 20
268.20515199999988
 30
0.0
 11
388.27418399999988
 21
268.20515199999988
 31
0.0
  0
ARC
  5
A100
  8
DANMEN
  6
CONTINUOUS
 10
388.580445
 20
270.50515200000001
 30
0.0
 40
0.5
 50
270.0
 51
24.443954999999999
  0
ARC
  5
A102
  8
DANMEN
  6
CONTINUOUS
 10
388.27418399999988
 20
269.205152
 30
0.0
 40
1.0
 50
270.0
 51
279.46232199999997
  0
LINE
  5
A103
  8
DANMEN
  6
CONTINUOUS
 10
388.74530499999992
 20
271.35076299999992
 30
0.0
 11
389.03562799999992
 21
270.71205299999991
 31
0.0
  0
ARC
  5
A107
  8
DANMEN
  6
CONTINUOUS
 10
393.35694699999999
 20
270.35802499999988
 30
0.0
 40
1.0
 50
0.0
 51
80.537678000000014
  0
ARC
  5
A109
  8
DANMEN
  6
CONTINUOUS
 10
393.35694699999999
 20
270.05227899999988
 30
0.0
 40
1.0
 50
279.46232199999997
 51
0.0
  0
LINE
  5
A10A
  8
DANMEN
  6
CONTINUOUS
 10
394.35694699999999
 20
270.35802499999988
 30
0.0
 11
394.35694699999999
 21
270.05227899999988
 31
0.0
  0
LINE
  5
A10D
  8
DANMEN
  6
CONTINUOUS
 10
397.85694699999999
 20
289.705152
 30
0.0
 11
413.85694699999999
 21
289.705152
 31
0.0
  0
LINE
  5
A110
  8
DANMEN
  6
CONTINUOUS
 10
388.35694699999999
 20
288.05515200000002
 30
0.0
 11
397.85694699999999
 21
288.05515200000002
 31
0.0
  0
LINE
  5
A111
  8
DANMEN
  6
CONTINUOUS
 10
385.35694699999999
 20
288.05515200000002
 30
0.0
 11
387.35694699999999
 21
288.05515200000002
 31
0.0
  0
LINE
  5
A115
  8
DANMEN
  6
CONTINUOUS
 10
383.35694699999999
 20
288.60515199999992
 30
0.0
 11
385.35694699999999
 21
288.60515199999992
 31
0.0
  0
LINE
  5
A116
  8
DANMEN
  6
CONTINUOUS
 10
385.35694699999999
 20
288.60515199999992
 30
0.0
 11
385.35694699999999
 21
288.05515200000002
 31
0.0
  0
ARC
  5
A118
  8
DANMEN
  6
CONTINUOUS
 10
387.85694699999999
 20
287.20515199999988
 30
0.0
 40
0.5
 50
270.0
 51
0.0
  0
LINE
  5
A11C
  8
DANMEN
  6
CONTINUOUS
 10
388.35694699999999
 20
288.05515200000002
 30
0.0
 11
388.35694699999999
 21
287.20515199999988
 31
0.0
  0
LINE
  5
A11D
  8
DANMEN
  6
CONTINUOUS
 10
387.35694699999999
 20
288.05515200000002
 30
0.0
 11
387.35694699999999
 21
286.705152
 31
0.0
  0
LINE
  5
A11E
  8
DANMEN
  6
CONTINUOUS
 10
387.35694699999999
 20
286.705152
 30
0.0
 11
387.85694699999999
 21
286.705152
 31
0.0
  0
LINE
  5
A11F
  8
DANMEN
  6
CONTINUOUS
 10
398.35694699999999
 20
289.20515199999988
 30
0.0
 11
398.35694699999999
 21
288.55515200000002
 31
0.0
  0
ARC
  5
A121
  8
DANMEN
  6
CONTINUOUS
 10
397.85694699999999
 20
288.55515200000002
 30
0.0
 40
0.5
 50
270.0
 51
0.0
  0
ARC
  5
A123
  8
DANMEN
  6
CONTINUOUS
 10
397.85694699999999
 20
289.20515199999988
 30
0.0
 40
0.5
 50
0.0
 51
90.0
  0
LINE
  5
A125
  8
DANMEN
  6
CONTINUOUS
 10
413.85694699999999
 20
292.705152
 30
0.0
 11
413.85694699999999
 21
288.60515600000002
 31
0.0
  0
ARC
  5
A126
  8
DANMEN
  6
CONTINUOUS
 10
415.85694699999999
 20
270.70515199999988
 30
0.0
 40
3.0
 50
336.42184199999991
 51
23.578178000000001
  0
ARC
  5
A129
  8
DANMEN
  6
CONTINUOUS
 10
418.14823699999999
 20
269.705152
 30
0.0
 40
0.5
 50
270.000291
 51
336.42195099999992
  0
ARC
  5
A12D
  8
DANMEN
  6
CONTINUOUS
 10
418.14823699999999
 20
271.705152
 30
0.0
 40
0.5
 50
23.578068999999989
 51
89.999763000000002
  0
ARC
  5
A12E
  8
DANMEN
  6
CONTINUOUS
 10
418.25694099999998
 20
292.10514599999999
 30
0.0
 40
0.6
 50
270.0000179999999
 51
90.000037000000006
  0
LINE
  5
A12F
  8
DANMEN
  6
CONTINUOUS
 10
463.35694699999999
 20
272.20515199999988
 30
0.0
 11
482.35694699999988
 21
272.20515199999988
 31
0.0
  0
LINE
  5
A130
  8
DANMEN
  6
CONTINUOUS
 10
463.35694699999999
 20
269.205152
 30
0.0
 11
482.35694699999988
 21
269.205152
 31
0.0
  0
LINE
  5
A131
  8
DANMEN
  6
CONTINUOUS
 10
509.85694699999999
 20
292.705152
 30
0.0
 11
463.35694699999999
 21
292.705152
 31
0.0
  0
LINE
  5
A132
  8
DANMEN
  6
CONTINUOUS
 10
509.85694699999999
 20
291.505156
 30
0.0
 11
463.35694699999999
 21
291.505156
 31
0.0
  0
LINE
  5
A133
  8
DANMEN
  6
CONTINUOUS
 10
509.85694699999999
 20
288.60515600000002
 30
0.0
 11
463.35694699999999
 21
288.60515600000002
 31
0.0
  0
LINE
  5
A134
  8
DANMEN
  6
CONTINUOUS
 10
478.06565699999999
 20
269.205152
 30
0.0
 11
482.35694699999988
 21
269.205152
 31
0.0
  0
LINE
  5
A135
  8
DANMEN
  6
CONTINUOUS
 10
478.06565699999999
 20
272.20515199999988
 30
0.0
 11
482.35694699999988
 21
272.20515199999988
 31
0.0
  0
ARC
  5
A136
  8
DANMEN
  6
CONTINUOUS
 10
480.35694699999999
 20
270.70515199999988
 30
0.0
 40
3.0
 50
156.42182199999991
 51
203.578158
  0
ARC
  5
A139
  8
DANMEN
  6
CONTINUOUS
 10
478.06565699999999
 20
269.705152
 30
0.0
 40
0.5
 50
203.57804899999999
 51
269.999709
  0
ARC
  5
A13D
  8
DANMEN
  6
CONTINUOUS
 10
478.06565699999999
 20
271.705152
 30
0.0
 40
0.5
 50
90.000236999999984
 51
156.421931
  0
LINE
  5
A13E
  8
DANMEN
  6
CONTINUOUS
 10
497.85694699999999
 20
269.205152
 30
0.0
 11
497.85694699999999
 21
272.20515199999988
 31
0.0
  0
LINE
  5
A13F
  8
DANMEN
  6
CONTINUOUS
 10
482.35694699999988
 20
272.20515199999988
 30
0.0
 11
482.35694699999988
 21
269.205152
 31
0.0
  0
ARC
  5
A143
  8
DANMEN
  6
CONTINUOUS
 10
505.456953
 20
292.10514599999999
 30
0.0
 40
0.6
 50
89.999962999999994
 51
269.99998199999987
  0
LINE
  5
A144
  8
DANMEN
  6
CONTINUOUS
 10
509.85694699999999
 20
292.705152
 30
0.0
 11
509.85694699999999
 21
288.60515600000002
 31
0.0
  0
LINE
  5
A145
  8
DANMEN
  6
CONTINUOUS
 10
525.85694699999999
 20
289.705152
 30
0.0
 11
554.85694699999999
 21
289.705152
 31
0.0
  0
LINE
  5
A146
  8
DANMEN
  6
CONTINUOUS
 10
542.00694699999985
 20
288.05515200000002
 30
0.0
 11
553.70694700000001
 21
288.05515200000002
 31
0.0
  0
LINE
  5
A147
  8
DANMEN
  6
CONTINUOUS
 10
525.85694699999999
 20
288.05515200000002
 30
0.0
 11
538.35694699999999
 21
288.05515200000002
 31
0.0
  0
LINE
  5
A148
  8
DANMEN
  6
CONTINUOUS
 10
525.35694699999999
 20
289.20515199999988
 30
0.0
 11
525.35694699999999
 21
288.55515200000002
 31
0.0
  0
ARC
  5
A149
  8
DANMEN
  6
CONTINUOUS
 10
525.85694699999999
 20
288.55515200000002
 30
0.0
 40
0.5
 50
180.0
 51
270.0
  0
ARC
  5
A14B
  8
DANMEN
  6
CONTINUOUS
 10
525.85694699999999
 20
289.20515199999988
 30
0.0
 40
0.5
 50
90.0
 51
180.0
  0
LINE
  5
A14E
  8
DANMEN
  6
CONTINUOUS
 10
538.35694699999999
 20
288.60515199999992
 30
0.0
 11
538.35694699999999
 21
288.05515200000002
 31
0.0
  0
LINE
  5
A14F
  8
DANMEN
  6
CONTINUOUS
 10
538.35694699999999
 20
288.60515199999992
 30
0.0
 11
540.35694699999988
 21
288.60515199999992
 31
0.0
  0
LINE
  5
A153
  8
DANMEN
  6
CONTINUOUS
 10
554.20694700000001
 20
283.705152
 30
0.0
 11
554.85694699999999
 21
283.705152
 31
0.0
  0
LINE
  5
A154
  8
DANMEN
  6
CONTINUOUS
 10
553.70694700000001
 20
288.05515200000002
 30
0.0
 11
553.70694700000001
 21
284.205152
 31
0.0
  0
ARC
  5
A155
  8
DANMEN
  6
CONTINUOUS
 10
554.20694700000001
 20
284.205152
 30
0.0
 40
0.5
 50
180.0
 51
270.0
  0
LINE
  5
A158
  8
DANMEN
  6
CONTINUOUS
 10
555.35694699999999
 20
289.20515199999988
 30
0.0
 11
555.35694699999999
 21
284.205152
 31
0.0
  0
ARC
  5
A159
  8
DANMEN
  6
CONTINUOUS
 10
554.85694699999999
 20
284.205152
 30
0.0
 40
0.5
 50
270.0
 51
0.0
  0
ARC
  5
A15B
  8
DANMEN
  6
CONTINUOUS
 10
554.85694699999999
 20
289.20515199999988
 30
0.0
 40
0.5
 50
0.0
 51
90.0
  0
LINE
  5
A15D
  8
SUNPO
  6
CONTINUOUS
 10
474.35694699999988
 20
162.705152
 30
0.0
 11
525.35694699999999
 21
162.705152
 31
0.0
  0
LINE
  5
A15E
  8
SUNPO
  6
BYBLOCK
 10
491.35694699999988
 20
299.70515199999988
 30
0.0
 11
525.35694699999999
 21
299.70515199999988
 31
0.0
  0
LINE
  5
A15F
  8
SUNPO
  6
BYBLOCK
 10
525.35694699999999
 20
172.705152
 30
0.0
 11
491.35694699999988
 21
172.705152
 31
0.0
  0
LINE
  5
A160
  8
SUNPO
  6
BYBLOCK
 10
523.85694599999988
 20
189.70515199999991
 30
0.0
 11
477.02770400000003
 21
189.70515199999991
 31
0.0
  0
LINE
  5
A161
  8
SUNPO
  6
BYBLOCK
 10
477.02770400000003
 20
189.70515199999991
 30
0.0
 11
477.02770400000003
 21
289.705152
 31
0.0
  0
LINE
  5
A162
  8
SUNPO
  6
BYBLOCK
 10
383.35694699999999
 20
188.205152
 30
0.0
 11
383.35694699999999
 21
172.705152
 31
0.0
  0
LINE
  5
A163
  8
SUNPO
  6
BYBLOCK
 10
398.35694699999999
 20
188.205152
 30
0.0
 11
398.35694699999999
 21
162.705152
 31
0.0
  0
LINE
  5
A164
  8
SUNPO
  6
BYBLOCK
 10
398.35694699999999
 20
181.20515199999991
 30
0.0
 11
398.35694699999999
 21
172.705152
 31
0.0
  0
LINE
  5
A165
  8
SUNPO
  6
BYBLOCK
 10
383.35694699999999
 20
182.3051529999999
 30
0.0
 11
383.35694699999999
 21
172.705152
 31
0.0
  0
LINE
  5
A166
  8
SUNPO
  6
CONTINUOUS
 10
398.35694699999999
 20
162.705152
 30
0.0
 11
444.35694699999988
 21
162.705152
 31
0.0
  0
LINE
  5
A167
  8
SUNPO
  6
CONTINUOUS
 10
398.35694699999999
 20
162.705152
 30
0.0
 11
403.35694699999999
 21
167.705152
 31
0.0
  0
LINE
  5
A168
  8
SUNPO
  6
CONTINUOUS
 10
403.35694699999999
 20
157.70515199999991
 30
0.0
 11
398.35694699999999
 21
162.705152
 31
0.0
  0
LINE
  5
A16A
  8
SUNPO
  6
BYBLOCK
 10
398.35694699999999
 20
172.705152
 30
0.0
 11
383.35694699999999
 21
172.705152
 31
0.0
  0
TEXT
  5
A16B
  8
SUNPO
  6
CONTINUOUS
 10
389.19028100000003
 20
173.20515199999991
 30
0.0
 40
2.5
  1
15
  7
MX_NOTE_STANDARD
  0
ARC
  5
A16D
  8
SUNPO
  6
BYBLOCK
 10
383.35694699999999
 20
172.705152
 30
0.0
 40
0.145
 50
180.0
 51
0.0
  0
ARC
  5
A16E
  8
SUNPO
  6
BYBLOCK
 10
383.35694699999999
 20
172.705152
 30
0.0
 40
0.145
 50
0.0
 51
180.0
  0
ARC
  5
A16F
  8
SUNPO
  6
BYBLOCK
 10
383.35694699999999
 20
172.705152
 30
0.0
 40
0.145
 50
0.0
 51
180.0
  0
ARC
  5
A170
  8
SUNPO
  6
BYBLOCK
 10
383.35694699999999
 20
172.705152
 30
0.0
 40
0.145
 50
180.0
 51
0.0
  0
ARC
  5
A171
  8
SUNPO
  6
BYBLOCK
 10
398.35694699999999
 20
172.705152
 30
0.0
 40
0.145
 50
180.0
 51
0.0
  0
ARC
  5
A172
  8
SUNPO
  6
BYBLOCK
 10
398.35694699999999
 20
172.705152
 30
0.0
 40
0.145
 50
0.0
 51
180.0
  0
LINE
  5
A173
  8
SUNPO
  6
CONTINUOUS
 10
403.35694699999999
 20
167.705152
 30
0.0
 11
403.35694699999999
 21
157.70515199999991
 31
0.0
  0
LINE
  5
A17A
  8
SUNPO
  6
BYBLOCK
 10
491.35694699999988
 20
181.20515199999991
 30
0.0
 11
491.35694699999988
 21
172.705152
 31
0.0
  0
LINE
  5
A17B
  8
SUNPO
  6
CONTINUOUS
 10
456.54306099999991
 20
159.205152
 30
0.0
 11
452.06552999999991
 21
159.205152
 31
0.0
  0
LINE
  5
A17C
  8
SUNPO
  6
CONTINUOUS
 10
459.58450699999997
 20
159.20515299999991
 30
0.0
 11
455.54306100000002
 21
166.20515
 31
0.0
  0
LINE
  5
A17D
  8
SUNPO
  6
CONTINUOUS
 10
458.852462
 20
166.205152
 30
0.0
 11
454.54306100000002
 21
166.205152
 31
0.0
  0
LINE
  5
A17E
  8
SUNPO
  6
CONTINUOUS
 10
453.233723
 20
159.20515299999991
 30
0.0
 11
449.19227899999998
 21
166.20514900000001
 31
0.0
  0
LINE
  5
A17F
  8
SUNPO
  6
CONTINUOUS
 10
455.54306100000002
 20
159.205152
 30
0.0
 11
451.50161600000001
 21
166.20514900000001
 31
0.0
  0
LINE
  5
A180
  8
SUNPO
  6
CONTINUOUS
 10
455.54306100000002
 20
166.205152
 30
0.0
 11
455.54306100000002
 21
159.20515299999991
 31
0.0
  0
LINE
  5
A181
  8
SUNPO
  6
CONTINUOUS
 10
452.46328699999998
 20
166.205152
 30
0.0
 11
448.08793700000001
 21
166.205152
 31
0.0
  0
LINE
  5
A182
  8
SUNPO
  6
CONTINUOUS
 10
461.89390900000001
 20
166.205152
 30
0.0
 11
461.89390900000001
 21
159.20515499999991
 31
0.0
  0
LINE
  5
A183
  8
SUNPO
  6
CONTINUOUS
 10
461.8939059999999
 20
159.20515599999999
 30
0.0
 11
457.852462
 21
166.20514900000001
 31
0.0
  0
LINE
  5
A184
  8
SUNPO
  6
CONTINUOUS
 10
462.47125699999998
 20
159.205152
 30
0.0
 11
458.89350999999988
 21
159.205152
 31
0.0
  0
LINE
  5
A186
  8
SUNPO
  6
CONTINUOUS
 10
462.8527519999999
 20
166.205152
 30
0.0
 11
460.8162319999999
 21
166.205152
 31
0.0
  0
LINE
  5
A187
  8
SUNPO
  6
CONTINUOUS
 10
470.62595700000003
 20
161.205152
 30
0.0
 11
465.62595700000003
 21
161.205152
 31
0.0
  0
LINE
  5
A188
  8
SUNPO
  6
CONTINUOUS
 10
470.62595700000003
 20
164.205152
 30
0.0
 11
465.62595700000003
 21
164.205152
 31
0.0
  0
ARC
  5
A18A
  8
SUNPO
  6
BYBLOCK
 10
491.35694699999988
 20
172.705152
 30
0.0
 40
0.145
 50
0.0
 51
180.0
  0
ARC
  5
A18B
  8
SUNPO
  6
BYBLOCK
 10
491.35694699999988
 20
172.705152
 30
0.0
 40
0.145
 50
180.0
 51
0.0
  0
TEXT
  5
A18C
  8
SUNPO
  6
CONTINUOUS
 10
506.2736139999999
 20
173.20515199999991
 30
0.0
 40
2.5
  1
34
  7
MX_NOTE_STANDARD
  0
LINE
  5
A18D
  8
SUNPO
  6
BYBLOCK
 10
477.02770400000003
 20
182.70515199999991
 30
0.0
 11
477.02770400000003
 21
189.70515199999991
 31
0.0
  0
TEXT
  5
A18E
  8
SUNPO
  6
CONTINUOUS
 10
476.52770399999991
 20
185.37181899999999
 30
0.0
 40
2.5
  1
7
 50
90.0
  7
MX_NOTE_STANDARD
  0
ARC
  5
A18F
  8
SUNPO
  6
BYBLOCK
 10
477.02770400000003
 20
182.70515199999991
 30
0.0
 40
0.145
 50
90.0
 51
270.0
  0
ARC
  5
A190
  8
SUNPO
  6
BYBLOCK
 10
477.02770400000003
 20
182.70515199999991
 30
0.0
 40
0.145
 50
270.0
 51
90.0
  0
ARC
  5
A192
  8
SUNPO
  6
BYBLOCK
 10
477.02770400000003
 20
189.70515199999991
 30
0.0
 40
0.145
 50
270.0
 51
90.0
  0
ARC
  5
A193
  8
SUNPO
  6
BYBLOCK
 10
477.02770400000003
 20
189.70515199999991
 30
0.0
 40
0.145
 50
90.0
 51
270.0
  0
ARC
  5
A194
  8
SUNPO
  6
BYBLOCK
 10
477.02770400000003
 20
189.70515199999991
 30
0.0
 40
0.145
 50
90.0
 51
270.0
  0
ARC
  5
A195
  8
SUNPO
  6
BYBLOCK
 10
477.02770400000003
 20
189.70515199999991
 30
0.0
 40
0.145
 50
270.0
 51
90.0
  0
LINE
  5
A199
  8
SUNPO
  6
BYBLOCK
 10
398.35694699999999
 20
291.20515199999988
 30
0.0
 11
398.35694699999999
 21
299.70515199999988
 31
0.0
  0
ARC
  5
A19C
  8
SUNPO
  6
BYBLOCK
 10
398.35694699999999
 20
299.70515199999988
 30
0.0
 40
0.145
 50
180.0
 51
0.0
  0
ARC
  5
A19D
  8
SUNPO
  6
BYBLOCK
 10
398.35694699999999
 20
299.70515199999988
 30
0.0
 40
0.145
 50
0.0
 51
180.0
  0
TEXT
  5
A19E
  8
SUNPO
  6
CONTINUOUS
 10
476.52770399999991
 20
237.884165
 30
0.0
 40
2.5
  1
100
 50
90.0
  7
MX_NOTE_STANDARD
  0
LINE
  5
A19F
  8
SUNPO
  6
BYBLOCK
 10
508.35694599999988
 20
289.705152
 30
0.0
 11
477.02770400000003
 21
289.705152
 31
0.0
  0
LINE
  5
A1A0
  8
SUNPO
  6
BYBLOCK
 10
503.85694599999988
 20
289.705152
 30
0.0
 11
477.02770400000003
 21
289.705152
 31
0.0
  0
LINE
  5
A1A1
  8
SUNPO
  6
BYBLOCK
 10
477.02770400000003
 20
289.705152
 30
0.0
 11
477.02770400000003
 21
292.705152
 31
0.0
  0
ARC
  5
A1A3
  8
SUNPO
  6
BYBLOCK
 10
477.02770400000003
 20
289.705152
 30
0.0
 40
0.145
 50
270.0
 51
90.0
  0
ARC
  5
A1A4
  8
SUNPO
  6
BYBLOCK
 10
477.02770400000003
 20
289.705152
 30
0.0
 40
0.145
 50
90.0
 51
270.0
  0
ARC
  5
A1A5
  8
SUNPO
  6
BYBLOCK
 10
477.02770400000003
 20
289.705152
 30
0.0
 40
0.145
 50
90.0
 51
270.0
  0
ARC
  5
A1A6
  8
SUNPO
  6
BYBLOCK
 10
477.02770400000003
 20
289.705152
 30
0.0
 40
0.145
 50
270.0
 51
90.0
  0
TEXT
  5
A1A7
  8
SUNPO
  6
CONTINUOUS
 10
476.52770399999991
 20
293.73711500000002
 30
0.0
 40
2.5
  1
3
 50
90.0
  7
MX_NOTE_STANDARD
  0
LINE
  5
A1A8
  8
SUNPO
  6
BYBLOCK
 10
477.02770400000003
 20
292.705152
 30
0.0
 11
477.02770400000003
 21
295.820448
 31
0.0
  0
ARC
  5
A1AA
  8
SUNPO
  6
BYBLOCK
 10
477.02770400000003
 20
292.705152
 30
0.0
 40
0.145
 50
270.0
 51
90.0
  0
ARC
  5
A1AB
  8
SUNPO
  6
BYBLOCK
 10
477.02770400000003
 20
292.705152
 30
0.0
 40
0.145
 50
90.0
 51
270.0
  0
LINE
  5
A1AC
  8
SUNPO
  6
BYBLOCK
 10
491.35694699999988
 20
294.205152
 30
0.0
 11
491.35694699999988
 21
299.70515199999988
 31
0.0
  0
ARC
  5
A1B1
  8
SUNPO
  6
BYBLOCK
 10
491.35694699999988
 20
299.70515199999988
 30
0.0
 40
0.145
 50
0.0
 51
180.0
  0
ARC
  5
A1B2
  8
SUNPO
  6
BYBLOCK
 10
491.35694699999988
 20
299.70515199999988
 30
0.0
 40
0.145
 50
180.0
 51
0.0
  0
TEXT
  5
A1B3
  8
SUNPO
  6
CONTINUOUS
 10
506.2736139999999
 20
300.205152
 30
0.0
 40
2.5
  1
34
  7
MX_NOTE_STANDARD
  0
LINE
  5
A1B4
  8
SUNPO
  6
BYBLOCK
 10
565.35694699999988
 20
289.705152
 30
0.0
 11
565.35694699999988
 21
202.70515599999999
 31
0.0
  0
LINE
  5
A1B5
  8
SUNPO
  6
BYBLOCK
 10
525.35694699999999
 20
181.20515199999991
 30
0.0
 11
525.35694699999999
 21
172.705152
 31
0.0
  0
LINE
  5
A1B6
  8
SUNPO
  6
BYBLOCK
 10
540.35694699999988
 20
182.3051529999999
 30
0.0
 11
540.35694699999988
 21
172.705152
 31
0.0
  0
LINE
  5
A1B7
  8
SUNPO
  6
BYBLOCK
 10
525.35694699999999
 20
181.20515199999991
 30
0.0
 11
525.35694699999999
 21
172.705152
 31
0.0
  0
LINE
  5
A1B8
  8
SUNPO
  6
BYBLOCK
 10
555.35694699999999
 20
181.20515199999991
 30
0.0
 11
555.35694699999999
 21
172.705152
 31
0.0
  0
LINE
  5
A1B9
  8
SUNPO
  6
BYBLOCK
 10
540.35694699999988
 20
188.205152
 30
0.0
 11
540.35694699999988
 21
172.705152
 31
0.0
  0
LINE
  5
A1BA
  8
SUNPO
  6
BYBLOCK
 10
555.35694699999999
 20
188.205152
 30
0.0
 11
555.35694699999999
 21
162.705152
 31
0.0
  0
LINE
  5
A1BB
  8
SUNPO
  6
BYBLOCK
 10
525.35694699999999
 20
181.20515199999991
 30
0.0
 11
525.35694699999999
 21
162.705152
 31
0.0
  0
LINE
  5
A1BC
  8
SUNPO
  6
BYBLOCK
 10
555.35694699999999
 20
172.705152
 30
0.0
 11
540.35694699999988
 21
172.705152
 31
0.0
  0
LINE
  5
A1BD
  8
SUNPO
  6
BYBLOCK
 10
555.35694699999999
 20
162.705152
 30
0.0
 11
525.35694699999999
 21
162.705152
 31
0.0
  0
TEXT
  5
A1BE
  8
SUNPO
  6
CONTINUOUS
 10
546.1902809999998
 20
173.20515199999991
 30
0.0
 40
2.5
  1
15
  7
MX_NOTE_STANDARD
  0
LINE
  5
A1BF
  8
SUNPO
  6
BYBLOCK
 10
540.35694699999988
 20
172.705152
 30
0.0
 11
525.35694699999999
 21
172.705152
 31
0.0
  0
LINE
  5
A1C0
  8
SUNPO
  6
CONTINUOUS
 10
525.35694699999999
 20
162.705152
 30
0.0
 11
520.35694699999988
 21
157.70515199999991
 31
0.0
  0
LINE
  5
A1C1
  8
SUNPO
  6
CONTINUOUS
 10
520.35694699999988
 20
167.705152
 30
0.0
 11
525.35694699999999
 21
162.705152
 31
0.0
  0
LINE
  5
A1C2
  8
SUNPO
  6
CONTINUOUS
 10
520.35694699999988
 20
157.70515199999991
 30
0.0
 11
520.35694699999988
 21
167.705152
 31
0.0
  0
ARC
  5
A1C8
  8
SUNPO
  6
BYBLOCK
 10
525.35694699999999
 20
172.705152
 30
0.0
 40
0.145
 50
180.0
 51
0.0
  0
ARC
  5
A1C9
  8
SUNPO
  6
BYBLOCK
 10
525.35694699999999
 20
172.705152
 30
0.0
 40
0.145
 50
0.0
 51
180.0
  0
ARC
  5
A1CA
  8
SUNPO
  6
BYBLOCK
 10
525.35694699999999
 20
172.705152
 30
0.0
 40
0.145
 50
0.0
 51
180.0
  0
ARC
  5
A1CB
  8
SUNPO
  6
BYBLOCK
 10
525.35694699999999
 20
172.705152
 30
0.0
 40
0.145
 50
180.0
 51
0.0
  0
TEXT
  5
A1CC
  8
SUNPO
  6
CONTINUOUS
 10
538.48194699999999
 20
163.205152
 30
0.0
 40
2.5
  1
30
  7
MX_NOTE_STANDARD
  0
TEXT
  5
A1CD
  8
SUNPO
  6
CONTINUOUS
 10
531.19028099999991
 20
173.20515199999991
 30
0.0
 40
2.5
  1
15
  7
MX_NOTE_STANDARD
  0
ARC
  5
A1CF
  8
SUNPO
  6
BYBLOCK
 10
540.35694699999988
 20
172.705152
 30
0.0
 40
0.145
 50
180.0
 51
0.0
  0
ARC
  5
A1D0
  8
SUNPO
  6
BYBLOCK
 10
540.35694699999988
 20
172.705152
 30
0.0
 40
0.145
 50
0.0
 51
180.0
  0
ARC
  5
A1D1
  8
SUNPO
  6
BYBLOCK
 10
540.35694699999988
 20
172.705152
 30
0.0
 40
0.145
 50
0.0
 51
180.0
  0
ARC
  5
A1D2
  8
SUNPO
  6
BYBLOCK
 10
540.35694699999988
 20
172.705152
 30
0.0
 40
0.145
 50
180.0
 51
0.0
  0
ARC
  5
A1D3
  8
SUNPO
  6
BYBLOCK
 10
555.35694699999999
 20
162.705152
 30
0.0
 40
0.145
 50
180.0
 51
0.0
  0
ARC
  5
A1D4
  8
SUNPO
  6
BYBLOCK
 10
555.35694699999999
 20
162.705152
 30
0.0
 40
0.145
 50
0.0
 51
180.0
  0
ARC
  5
A1D5
  8
SUNPO
  6
BYBLOCK
 10
555.35694699999999
 20
172.705152
 30
0.0
 40
0.145
 50
180.0
 51
0.0
  0
ARC
  5
A1D6
  8
SUNPO
  6
BYBLOCK
 10
555.35694699999999
 20
172.705152
 30
0.0
 40
0.145
 50
0.0
 51
180.0
  0
LINE
  5
A1D7
  8
SUNPO
  6
BYBLOCK
 10
545.495498
 20
202.70515599999999
 30
0.0
 11
565.35694699999988
 21
202.70515599999999
 31
0.0
  0
LINE
  5
A1E0
  8
SUNPO
  6
BYBLOCK
 10
556.85694699999988
 20
189.70515199999991
 30
0.0
 11
565.35694699999988
 21
189.70515199999991
 31
0.0
  0
TEXT
  5
A1E1
  8
SUNPO
  6
CONTINUOUS
 10
564.85694699999988
 20
194.53848699999989
 30
0.0
 40
2.5
  1
13
 50
90.0
  7
MX_NOTE_STANDARD
  0
LINE
  5
A1E5
  8
SUNPO
  6
BYBLOCK
 10
565.35694699999988
 20
202.70515599999999
 30
0.0
 11
565.35694699999988
 21
189.70515199999991
 31
0.0
  0
ARC
  5
A1E7
  8
SUNPO
  6
BYBLOCK
 10
565.35694699999988
 20
189.70515199999991
 30
0.0
 40
0.145
 50
90.0
 51
270.0
  0
ARC
  5
A1E8
  8
SUNPO
  6
BYBLOCK
 10
565.35694699999988
 20
189.70515199999991
 30
0.0
 40
0.145
 50
270.0
 51
90.0
  0
ARC
  5
A1EA
  8
SUNPO
  6
BYBLOCK
 10
565.35694699999988
 20
202.70515599999999
 30
0.0
 40
0.145
 50
90.0
 51
270.0
  0
ARC
  5
A1EB
  8
SUNPO
  6
BYBLOCK
 10
565.35694699999988
 20
202.70515599999999
 30
0.0
 40
0.145
 50
270.0
 51
90.0
  0
ARC
  5
A1EC
  8
SUNPO
  6
BYBLOCK
 10
565.35694699999988
 20
202.70515599999999
 30
0.0
 40
0.145
 50
270.0
 51
90.0
  0
ARC
  5
A1ED
  8
SUNPO
  6
BYBLOCK
 10
565.35694699999988
 20
202.70515599999999
 30
0.0
 40
0.145
 50
90.0
 51
270.0
  0
TEXT
  5
A1EE
  8
SUNPO
  6
CONTINUOUS
 10
564.85694699999988
 20
244.1218189999999
 30
0.0
 40
2.5
  1
87
 50
90.0
  7
MX_NOTE_STANDARD
  0
LINE
  5
A1EF
  8
SUNPO
  6
BYBLOCK
 10
525.35694699999999
 20
299.70515199999988
 30
0.0
 11
555.35694699999999
 21
299.70515199999988
 31
0.0
  0
LINE
  5
A1F0
  8
SUNPO
  6
BYBLOCK
 10
525.35694699999999
 20
291.20515199999988
 30
0.0
 11
525.35694699999999
 21
299.70515199999988
 31
0.0
  0
LINE
  5
A1F1
  8
SUNPO
  6
BYBLOCK
 10
525.35694699999999
 20
291.20515199999988
 30
0.0
 11
525.35694699999999
 21
299.70515199999988
 31
0.0
  0
ARC
  5
A1F5
  8
SUNPO
  6
BYBLOCK
 10
525.35694699999999
 20
299.70515199999988
 30
0.0
 40
0.145
 50
180.0
 51
0.0
  0
ARC
  5
A1F6
  8
SUNPO
  6
BYBLOCK
 10
525.35694699999999
 20
299.70515199999988
 30
0.0
 40
0.145
 50
0.0
 51
180.0
  0
ARC
  5
A1F7
  8
SUNPO
  6
BYBLOCK
 10
525.35694699999999
 20
299.70515199999988
 30
0.0
 40
0.145
 50
0.0
 51
180.0
  0
ARC
  5
A1F8
  8
SUNPO
  6
BYBLOCK
 10
525.35694699999999
 20
299.70515199999988
 30
0.0
 40
0.145
 50
180.0
 51
0.0
  0
TEXT
  5
A1F9
  8
SUNPO
  6
CONTINUOUS
 10
538.48194699999999
 20
300.205152
 30
0.0
 40
2.5
  1
30
  7
MX_NOTE_STANDARD
  0
LINE
  5
A1FA
  8
SUNPO
  6
BYBLOCK
 10
555.35694699999999
 20
291.20515199999988
 30
0.0
 11
555.35694699999999
 21
299.70515199999988
 31
0.0
  0
LINE
  5
A1FB
  8
SUNPO
  6
BYBLOCK
 10
556.85694699999988
 20
289.705152
 30
0.0
 11
565.35694699999988
 21
289.705152
 31
0.0
  0
ARC
  5
A1FE
  8
SUNPO
  6
BYBLOCK
 10
565.35694699999988
 20
289.705152
 30
0.0
 40
0.145
 50
270.0
 51
90.0
  0
ARC
  5
A1FF
  8
SUNPO
  6
BYBLOCK
 10
565.35694699999988
 20
289.705152
 30
0.0
 40
0.145
 50
90.0
 51
270.0
  0
ARC
  5
A201
  8
SUNPO
  6
BYBLOCK
 10
555.35694699999999
 20
299.70515199999988
 30
0.0
 40
0.145
 50
180.0
 51
0.0
  0
ARC
  5
A202
  8
SUNPO
  6
BYBLOCK
 10
555.35694699999999
 20
299.70515199999988
 30
0.0
 40
0.145
 50
0.0
 51
180.0
  0
ENDSEC
  0
EOF
